Petty Tom - Lost Children (riff) Chords & Tabs

 

Lost Children (riff) Chords & Tabs

Petty Tom Chords & Tabs

Version: 1 Type: Tab 0 ratings
1 star 2 stars 3 stars 4 stars 5 stars
comments

Lost Children (riff) Tab

   
#----------------------------------PLEASE NOTE---------------------------------#
#This file is the author's own work and represents their interpretation of the #
#song. You may only use this file for private study, scholarship, or research. #
#------------------------------------------------------------------------------#

Artist: Tom Petty and the Heartbreakers
Album: The Last DJ
Song: Lost Children

[ Tab from: http://www.guitartabs.cc/tabs/p/petty_tom/lost_children_riff_tab.html ]
Main Riff:
E|-----------------------------------------
B|-----------------------------------------
G|---------------5-------------------------
D|-5h7-7~----5-7---7~--5h7-7~--------------
A|---------7-------------------5-----------
E|-------------------------------8-5~--5~-- x4



Dm Am G x2


Main Riff x2


Dm Am G x2


Bridge Riff A (with solos in Am pentonic):
E|------------------
B|------------------
G|------------------
D|-----9--7---------
A|------------9-8-7-
E|-7---------------- x4

Bridge Riff B (with solos in Am pentonic):
E|---------------------
B|---------------------
G|---------------------
D|-----11--9-----------
A|-------------11-10-9-
E|-9------------------- x4


Main Riff x4 with solos in Am pentonic
Comments