Petty Tom - Learning To Fly Chords & Tabs

 

Learning To Fly Chords & Tabs

Petty Tom Chords & Tabs

Version: 2 Type: Tab 1 rating
1 star 2 stars 3 stars 4 stars 5 stars
comments

Learning To Fly Tab

   
#----------------------------------PLEASE NOTE---------------------------------#
#This file is the author's own work and represents their interpretation of the #
#song. You may only use this file for private study, scholarship, or research. #
#------------------------------------------------------------------------------#


I added the solo to Greg's tab. Here it is. It is at least really close 
to right.

Happy Playing

DPac


Solo:
[ Tab from: http://www.guitartabs.cc/tabs/p/petty_tom/learning_to_fly_tab_ver_2.html ]
e-------12-12~/1--------8~---------8----------------------------------------
B----13---------------8------7brb----7-6------------------------------------
G-12----------------9---------------------7br/5-0-5-5-0---------------------
D---------------------------------------------------------------------------
A-------------------------------------------------------5br-3---------------
E-------------------------------------------------------------5-3-----------

~ = vibrato
b = bend
r = release
/ = slide

____________________________________________________________________________


This is a pretty simple one 1 guitar plays the simple chord pattern

F  C  Am   G

The other guitar plays this little riff:

e---------------------------------------------------------------------------
B------1---1-----1---1--0--1-0-1----1--1---1----1-----1-0--1-0-1------------
G-2-0----0---0-0---0-------------2-0--0-0-0---0----0------------------------
D---------------------------------------------------------------------------
A---------------------------------------------------------------------------
E---------------------------------------------------------------------------

Any questions problems feel free to e-mail me

Your pal

Greg
Comments