Petty Tom - It's Good To Be King Chords & Tabs

 

It's Good To Be King Chords & Tabs

Petty Tom Chords & Tabs

Version: 1 Type: Chords 0 ratings
1 star 2 stars 3 stars 4 stars 5 stars
comments

It's Good To Be King Chords

   
#----------------------------------PLEASE NOTE---------------------------------#
#This file is the author's own work and represents their interpretation of the #
#song. You may only use this file for private study, scholarship, or research. #
#------------------------------------------------------------------------------#

Tom Petty
It's Good to be King


Intro (piano for guitar)

    Em   Am   D    Em         Em   Am   D     Em
e-----------------------------------------------|
B-----------------------------------------------|
G---16---14---12---14---------16---14---12----9-|
D-----------------------------------------------|
A-----------------------------------------------|
E-----------------------------------------------|

Verse 1
Em Am D  C G A   
      
Verse 2 (same)

(It's good to be king and have your own way...)

Solo (2:14)
[ Tab from: http://www.guitartabs.cc/tabs/p/petty_tom/its_good_to_be_king_crd.html ]
   u D     u    D               u D  
e--------------------------------------------|
B-----------------------------------12h15-12-|
G--14b-12-14b--14b-12h14-14v----14b----------|
D--------------------------------------------|
A--------------------------------------------|
E--------------------------------------------|

   u D     u   D  D  D  D  D  D
e--------------------------------|
B--15b-12-15bt15t15t15t15t15t15--|
G--------------------------------|
D--------------------------------|
A--------------------------------|
E--------------------------------|

   u D
e--------------------------------------------|
B--15b--15-12-15-12-----12-------------------|
G-------------------14v----14-14-12----------|
D-----------------------------------14-12h14-|
A--------------------------------------------|
E--------------------------------------------|


Verse 3 (same as 1 and 2)

(It's good to be king and have your own world...)

Back to Piano Intro


you can improvise solo over the ending piano part, 
it sounds good in the Em pentatonic from the 12th fret

Yost with the Most
Comments