Petty Tom - Honey Bee Chords & Tabs

 

Honey Bee Chords & Tabs

Petty Tom Chords & Tabs

Version: 2 Type: Tab 0 ratings
1 star 2 stars 3 stars 4 stars 5 stars
comments

Honey Bee Tab

#----------------------------------PLEASE NOTE---------------------------------#
#This file is the author's own work and represents their interpretation of the #
#song. You may only use this file for private study, scholarship, or research. #
#------------------------------------------------------------------------------##
Transcribed by: Dennis Westlind 
Flame repository: dennis.westlind@svet.lu.se

Well, after months of living off the labor of everyone else that has
contributed both here and at Nevada, this is my first shot at
transcribing something. I used my black on white US Strat hooked up to
a cheap Dean Markely practice amp. 



Honey Bee by Tom Petty
From the Album: Wildflowers


Intro Riff (same throughout song) Bass plays something similar to
guitar 1 riff.
[ Tab from: http://www.guitartabs.cc/tabs/p/petty_tom/honey_bee_tab_ver_2.html ]
Guitar 1 (Heavy Buzz)
E-----------------------------------------
B-----------------------------------------
G-----------------------------------------
D-----------------------------------------
A-----------------------------------------
E--0---3---5p0---8-----5--0---3---5---8---

E-----------------------------------------
B-----------------------------------------
G-----------------------------------------
D-----------------------------------------
A-----------------------------------------
E--0---3---5p0----8-----5--0--3-0---5-----

Guitar 2 (Some distortion)
E-----------------------------------------
B-----------------------------------------
G-----------------------------------------
D--2---5---7-----10----7-2---5---7---10---
A--2---5---7-----10----7-2---5---7---10---
E-----------------------------------------

E-----------------------------------------
B-----------------------------------------
G-----------------------------------------
D--2---5---7-----10----7-2---5-2---7------
A--2---5---7-----10----7-2---5-2---7------
E-----------------------------------------

Repeat 2x




repeat riff to fade


That should do it. If anyone has the gumption to transcribe the solo, I
would appreciate a copy.


Dennis Westlind
Comments