Petty Tom - Climb That Hill Chords & Tabs

 

Climb That Hill Chords & Tabs

Petty Tom Chords & Tabs

Version: 1 Type: Tab 0 ratings
1 star 2 stars 3 stars 4 stars 5 stars
comments

Climb That Hill Tab

#----------------------------------PLEASE NOTE---------------------------------#
#This file is the author's own work and represents their interpretation of the #
#song. You may only use this file for private study, scholarship, or research. #
#------------------------------------------------------------------------------#
#

Date: Tue, 28 Oct 1997 15:45:27 -0500
From: Bob Best 
Subject: TAB:  Climb That Hill  by  Tom Petty

Climb That Hill
===============
Transcribed By: Bob Best [bbest@osfi-bsif.gc.ca]


NOTE:  There is an alternative way of playing the main opening measure
(see bottom).

Use dropped D tuning

>e-|--------------------------------------------------------------------------|
>B-|--------------------------------------------------------------------------|
>G-|-------7---5-------------7---5-------------7---5-------------7---5--------|
>D-|-5h7-----5---------5h7-----5---------5h7-----5---------5h7-----5----------|
>A-|-----5-----------------5-----------------5-----------------5--------------|
>D-|-----0-----------------------------------0-----------------0--------------|


>e-|--------------------------------------------------------------------------|
>B-|--------------------------------------------------------------------------|
>G-|-------7---------5-------------7------5-----------------------------------|
>D-|-5h7-------5-------------5h7------5---------------------------------------|
>A-|-----5-----------------------5--------------------------------------------|
>D-|-----0--------------------------------------------------------------------|
         

>e-|--------------------------------------------------------------------------|
>B-|--------------------------------------------------------------------------|
>G-|-------7-----5-----------------7--------5---------------------------------|
>D-|-5h7------5--------------5h7------5---------------------------------------|
>A-|-----5-----------------------5--------------------------------------------|
>D-|-----0--------------------------------------------------------------------|
     

>e-|--------------------------------------------------------------------------|
>B-|--------------------------------------------------------------------------|
>G-|--7--------5-------7---------5----------------7---5---------7---5---------|
>D-|--5--------3-------5---------3----------5h7-----5------5h7----5-----------|
>A-|--5--------3-------5---------3--------------5--------------5--------------|
>D-|--5--------3-------5---------3--------------0--------------0--------------|


>e-|---------(0)--------------------------------------------------------------|
>B-|----------1---------------------------------------------------------------|
>G-|----------2------------5----------7----------------7---5---------7---5----|
>D-|----------3------------3----------5----------5h7-----5-----5h7-----5------|
>A-|----------0------------3----------5------5-------5-------------5----------|
>D-|-----------------------3----------5------0-------0-------------0----------|


>e-|--------------------------------------------------------------------------|
>B-|--------------------------------------------------------------------------|
>G-|-------7-------5-------------7-------5------------------------------------|
>D-|-5h7-------5-----------5h7--------5---------------------------------------|
>A-|-----5---------------------5----------------------------------------------|
>D-|-----0--------------------------------------------------------------------|



>e-|--------------------------------------------------------------------------|
>B-|--------------------------------------------------------------------------|
>G-|-------7--------5------------------7------5-------------------------------|
>D-|-5h7--------5----------------5h7------5-----------------------------------|
>A-|-----5---------------------------5----------------------------------------|
>D-|-----0--------------------------------------------------------------------|



>e-|--------------------------------------------------------------------------|
>B-|--------------------------------------------------------------------------|
>G-|--7-------5------7-----5------------7---5---------7---5-------------------|
>D-|--5-------3------5-----3-------5h7----5------5h7----5---------------------|
>A-|--5-------3------5-----3-----------5-------------5------------------------|
>D-|--5-------3------5-----3-----------0-------------0------------------------|


>e-|---------(0)--------------------------------------------------------------|
>B-|----------1-----------------------------3---------------------------------|
>G-|----------2------------5----------7-----2-----0---------------------------|
>D-|----------2------------3----------5-----0-----0----------3--5-------------|
>A-|----------0------------3----------5--------3--2----------3--5-------------|
>D-|-----------------------3----------5--------------3~~--0--3--5-------------|


>e-|--------------------------------------------------------------------------|
>B-|-3----------------5--3----3----------------3--5----3----------------5--3--|
>G-|-2-----0----------7--5----2-----0----------5--7----2-----0----------7--5--|
>D-|-0-----0----------5--3----0-----0----------3--5----0-----0----------5--3--|
>A-|----3--2----------5--3-------3--2----------3--5-------3--2----------5--3--|
>D-|----------3~~--0--5--3-------------3~~--0--3--5-------------3~~--0--5--3--|


>e-|--------------------------------------------------------------------------|
>B-|--------------------------------------------------------------------------|
>G-|----------7-------------10------------------------------------------------|
>D-|----------5--------------8------------------------------------------------|
>A-|----------5--------------8------------------------------------------------|
>D-|----------5--------------8------------------------------------------------|


>e-|---(0)--------------------------------------------------------------------|
>B-|----1--------------3------------------------------------------------------|
>G-|----2--------------2------------------------------------------------------|
>D-|----3--------------0------------------------------------------------------|
>A-|----0--------------0------------------------------------------------------|
>D-|-------------------0------------------------------------------------------|


>e-|--------------------------------------------------------------------------|
>B-|--------------------------------------------------------------------------|
>G-|----------7---------------------10----------------------------------------|
>D-|----------5----------------------8----------------------------------------|
>A-|----------5----------------------8----------------------------------------|
>D-|----------5----------------------8----------------------------------------|


>e-|---(0)--------------------------------------------------------------------|
>B-|----1--------------3------3----------------3--5----3----------------5--3--|
>G-|----2--------------2------2-----0----------5--7----2-----0----------7--5--|
>D-|----2--------------0------0-----0----------3--5----0-----0----------5--3--|
>A-|----0--------------0---------3--2----------3--5-------3--2----------5--3--|
>D-|-------------------0---------------3~~--0--3--5-------------3~~--0--5--3--|


[ Tab from: http://www.guitartabs.cc/tabs/p/petty_tom/climb_that_hill_tab.html ]
>e-|--------------------------------------------------------------------------|
>B-|-3----------------5--3----3----------------3--5---------------------------|
>G-|-2-----0----------7--5----2-----0----------5--7---------------------------|
>D-|-0-----0----------5--3----0-----0----------3--5---------------------------|
>A-|----3--2----------5--3-------3--2----------3--5---------------------------|
>D-|----------3~~--0--5--3-------------3~~--0--3--5---------------------------|

>e-|--------------------------------------------------------------------------|
>B-|--------------------------------------------------------------------------|
>G-|----------7-------------10------------------------------------------------|
>D-|----------5--------------8------------------------------------------------|
>A-|----------5--------------8------------------------------------------------|
>D-|----------5--------------8------------------------------------------------|


>e-|---(0)--------------------------------------------------------------------|
>B-|----1--------------3------------------------------------------------------|
>G-|----2--------------2------------------------------------------------------|
>D-|----2--------------0------------------------------------------------------|
>A-|----0--------------0------------------------------------------------------|
>D-|-------------------0------------------------------------------------------|


>e-|--------------------------------------------------------------------------|
>B-|--------------------------------------------------------------------------|
>G-|----------7---------------------10----------------------------------------|
>D-|----------5----------------------8----------------------------------------|
>A-|----------5----------------------8----------------------------------------|
>D-|----------5----------------------8----------------------------------------|


>e-|---(0)--------------------------------------------------------------------|
>B-|----1--------------3------------------------------------------------------|
>G-|----2--------------2-----------7---5-------------7---5-------------7---5--|
>D-|----2--------------0-----5h7-----5---------5h7-----5---------5h7-----5----|
>A-|----0--------------0--5------5-----------------5-----------------5--------|
>D-|-------------------0--0------0-----------------------------------0--------|


>e-|--------------------------------------------------------------------------|
>B-|--------------------------------------------------------------------------|
>G-|-----7---5---------------7-------5-------------7---------5----------------|
>D-|-----5h7-----5-----5h7------5-----------5h7----------5--------------------|
>A-|---------5-------------5---------------------5----------------------------|
>D-|---------0----------------------------------------------------------------|


>e-|--------------------------------------------------------------------------|
>B-|--------------------------------------------------------------------------|
>G-|---------7---------5---------7------5-------------------------------------|
>D-|-5h7-----------5--------5h7----5------------------------------------------|
>A-|-----5----------------------5---------------------------------------------|
>D-|--------------------------------------------------------------------------|


>e-|--------------------------------------------------------------------------|
>B-|--------------------------------------------------------------------------|
>G-|------7--------5-----7----------5-----------7---5---------7---5-----------|
>D-|------5--------3-----5----------3-----5h7-----5------5h7----5-------------|
>A-|------5--------3-----5----------3---------5--------------5----------------|
>D-|------5--------3-----5----------3---------0--------------0----------------|



>e-|-----------(0)---------------------------(0)------------------------------|
>B-|------------1-----------------------------1-------------------------------|
>G-|------------2------------5----------7-----2------------5----------7-------|
>D-|------------2------------3----------5-----2------------3----------5-------|
>A-|------------0------------3----------5-----0------------3----------5-------|
>D-|-------------------------3----------5------------------3----------5-------|


>e-|-----------(0)------------------------------------------------------------|
>B-|------------1-----------------------------3-------------------------------|
>G-|------------2------------5----------7-----2-----0-------------------------|
>D-|------------2------------3----------5-----0-----0----------3--5-----------|
>A-|------------0------------3----------5--------3--2----------3--5-----------|
>D-|-------------------------3----------5--------------3~~--0--3--5---------


>e-|--------------------------------------------------------------------------|
>B-|-3----------------5--3----3----------------3--5----3----------------5--3--|
>G-|-2-----0----------7--5----2-----0----------5--7----2-----0----------7--5--|
>D-|-0-----0----------5--3----0-----0----------3--5----0-----0----------5--3--|
>A-|----3--2----------5--3-------3--2----------3--5-------3--2----------5--3--|
>D-|----------3~~--0--5--3-------------3~~--0--3--5-------------3~~--0--5--3--|


>e-|--------------------------------------------------------------------------|
>B-|-3----------------3--5----3----------------5--3----3----------------3--5--|
>G-|-2-----0----------5--7----2-----0----------7--5----2-----0----------5--7--|
>D-|-0-----0----------3--5----0-----0----------5--3----0-----0----------3--5--|
>A-|----3--2----------3--5-------3--2----------5--3-------3--2----------3--5--|
>D-|----------3~~--0--3--5-------------3~~--0--5--3-------------3~~--0--3--5--|


>e-|-------------------------------|
>B-|-3----------------5--3--3------|
>G-|-2-----0----------7--5--2------|
>D-|-0-----0----------5--3--0------|
>A-|----3--2----------5--3--0------|
>D-|----------3~~--0--5--3--0------|

==SOLO AT
END=================================================================

>e-|-----------------------------13-------------------------------------------|
>B-|--14>15~~~----------14>15~~~----15>14-15-13-------------------------------|
>G-|--------------------------------------------14-12-------------------------|
>D-|--------------------------------------------------15~~~\------------------|
>A-|--------------------------------------------------------------------------|
>D-|--------------------------------------------------------------------------|

>e-|--16>17~~~------16>17>16--------------------------------------------------|
>B-|----------18p15----------15~~~--------------------------------------------|
>G-|--------------------------------------------------------------------------|
>D-|--------------------------------------------------------------------------|
>A-|--------------------------------------------------------------------------|
>D-|--------------------------------------------------------------------------|

== ALTERNATIVE PLAYING METHOD (Main
Measure)==================================

>e-|--------------------------------------------------------------------------|
>B-|---------3-----1------------3-----1------------3-----1------------3-----1-|
>G-|-0h2--------2-------0h2--------2-------0h2--------2-------0h2--------2----|
>D-|------0------------------0------------------0------------------0----------|
>A-|--------------------------------------------------------------------------|
>D-|------0-------------------------------------0-----------------------------|
Comments