Petra - Beyond Belief Chords & Tabs

 

Petra Chords & Tabs

Version: 1 Type: Tab 0 ratings
1 star 2 stars 3 stars 4 stars 5 stars
comments

Beyond Belief Tab

   
 Acoustic 
 ||----------------------------------|---------------------------------|
 ||--5---5---------------------------|---------------------------------|
4||o-4---4-------2---2---2-------4---|-4---4-----------4---4---4---4---|
4||o---------6\4-2---2---2-4/6---4---|-4---4-------4---6---6---4-------|
 ||----------------------------------|---------7-------------------7---|
 ||----------------------------------|---------------------------------|
     1 e & a 2 e & a 3 e & a 4 e & a   1 e & a 2 e & a 3 e & a 4 e & a

                                                               (2nd)
 |---------------------------------|----------------------------------||
 |-------------5-----------5-------|-------------5-----------5--------||
4|-4---4-------4-----------4-------|-4---4-------4-----------4-------o||
4|-4---4---------------------------|-4---4---------------------------o||
 |-2---2---------------------------|-2---2----------------------(0)---||
 |---------0-------0---0-------0---|---------0-------0---0------------||
   1 e & a 2 e & a 3 e & a 4 e & a   1 e & a 2 e & a 3 e & a 4 e & a

  |---------------------------------|---------------------------------|
  |---------------------------------|---------------------5---5-------|
 4|-4---4---4---4---4---4---4---4---|-4---4---4---4-------4---4-------|
 4|-4---4---4---2---4---4---4---2---|-4---4---2---4--/6-----------6---|
  |-2---2---2-------2---2---2-------|-2---2---------------------------|
  |---------------------------------|---------------------------------|
    1 e & a 2 e & a 3 e & a 4 e & a   1 e & a 2 e & a 3 e & a 4 e & a

  |---------------------------------|-2---2---2---0-------------------|
  |---------------------------------|-2---2---2---0---0---0---0---0---|
 4|-4---4---4---4---4---4---4---4---|-----------------1---1-----------|
 4|-4---4---4---2---4---4---2---4---|-------------------------4---2---|
  |-2---2---2-------2---2-----------|---------------------------------|
  |---------------------------------|---------------------------------|
    1 e & a 2 e & a 3 e & a 4 e & a   1 e & a 2 e & a 3 e & a 4 e & a

  |---------------------------------|---------------------------------|
  |---------------------------------|---------------------------------|
 4|-2---2---2-------2---2-------2---|-4---4---4---4---4---4---4---4---|
 4|-2---2---2-------2---2-------2---|-4---4---4---4---4---4---4---4---|
  |-0---0---0-------0---0-------0---|-2---2---2---0---2---4---2---0---|
  |-------------2-----------2-------|---------------------------------|
    1 e & a 2 e & a 3 e & a 4 e & a   1 e & a 2 e & a 3 e & a 4 e & a


 |---------------------------------|---------------------------------|
 |-------------5-----------5-------|-------------5-----------5-------|
4|-4---4-------4-----------4-------|-4---4-------4-----------4-------|
4|-4---4---------------------------|-4---4---------------------------|
 |-2---2---------------------------|-2---2---------------------------|
 |---------0-------0---0-------0---|---------0-------0---0-------0---|
   1 e & a 2 e & a 3 e & a 4 e & a   1 e & a 2 e & a 3 e & a 4 e & a

                                                            Electric
 |---------------------------------|---------------------------------|
 |---------------------------------|---------------------------------|
4|-4---4---4---4---4---4---4---4---|-4---4---4---4---4---------------|
4|-4---4---4---4---4---4---4---4---|-4---4---4---4---4---------------|
 |-2---2---2---2---2---2---2---2---|-2---2---2---2---2---------------|
 |---------------------------------|------------------------/12\-----|
   1 e & a 2 e & a 3 e & a 4 e & a   1 e & a 2 e & a 3 e & a 4 e & a
[ Tab from: http://www.guitartabs.cc/tabs/p/petra/beyond_belief_tab.html ]
 |---------------------------------|---------------------------------|
 |---------------------------------|---------------------------------|
4|-9---9---------------------------|---------------------------------|
4|-9---9-------7-------7-------9---|-----9-----------9---9---9-------|
 |---------11\-7-------7--/11--9---|-----9-------9---11--11--9-------|
 |---------------------------------|---------12------------------12\-|
   1 e & a 2 e & a 3 e & a 4 e & a   1 e & a 2 e & a 3 e & a 4 e & a

and so on . . .


   Solo 
 |---------------------------------|---------------------------------|
 |b12----------12------9---b12-----|-----------------12--10--9---10--|
4|---------------------------------|---------------------------------|
4|---------------------------------|---------------------------------|
 |---------------------------------|---------------------------------|
 |---------------------------------|---------------------------------|
   1 e & a 2 e & a 3 e & a 4 e & a   1 e & a 2 e & a 3 e & a 4 e & a

 |---------------------------------|---------------------------------|
 |-10----9--------------------5h7p5|-4-----5-4-----------------------|
4|---------11--10--11--------------|-------------5-------------------|
4|---------------------------------|-----------------6-----------9h11|
 |---------------------------------|---------------------------------|
 |---------------------------------|---------------------------------|
   1 e & a 2 e & a 3 e & a 4 e & a   1 e & a 2 e & a 3 e & a 4 e & a

 |---------------------------------|-9-----------9-------------------|
 |---------------------------------|-----12p9--------12p9------------|
4|-9---------------b11-------------|---------b11---------11-r11--9---|
4|--11---------9-------------------|---------------------------------|
 |---------------------------------|---------------------------------|
 |---------------------------------|---------------------------------|
   1 e & a 2 e & a 3 e & a 4 e & a   1 e & a 2 e & a 3 e & a 4 e & a

 |---------------------------------|---------------------------------|
 |---------------------------------|---------------------------------|
4|-8-----------9p8-----------------|---------------------------------|
4|-----------------9-----------\---|---------------------------------|
 |---------------------------------|/6-----------7p6-----------------|
 |---------------------------------|-----------------7-----------\---|
   1 e & a 2 e & a 3 e & a 4 e & a   1 e & a 2 e & a 3 e & a 4 e & a

 |---------12--12--12\-----5---4---|-5---------------------------\---|
 |---------12--12--12\-----5---5---|-5---------------------------\---|
4|---------------------------------|---------------------------------|
4|---------------------------------|---------------------------------|
 |---------------------------------|---------------------------------|
 |-0-------------------------------|---------------------------------|
   1 e & a 2 e & a 3 e & a 4 e & a   1 e & a 2 e & a 3 e & a 4 e & a

 |-----12--12-s14--14\-----5---4---|-5*---5*----5*---4-------2---0---|
 |-----12--12-s14--14\-----5---5---|-5*---5*----5*---5-------4---0---|
4|---------------------------------|---------------------------------|
4|---------------------------------|--(* triplet quarter notes)------|
 |---------------------------------|---------------------------------|
 |-0-------------------------------|---------------------------------|
   1 e & a 2 e & a 3 e & a 4 e & a   1       2       3 e & a 4 e & a


                                     *       *       *
 |---------0-------0h2h4------p0h2-|-5p4p2h4-7p5p4h5-12----------s7--|
 |-----0h2-------------------------|---------------------------------|
4|---------------------------------|---------------------------------|
4|---------------------------------|-(* right hammer)----------------|
 |---------------------------------|---------------------------------|
 |---------------------------------|---------------------------------|
   1 e & a 2 e & a 3 e & a 4 e & a   1 e & a 2 e & a 3 e & a 4 e & a


   *      *      *
 |-12p7p4-14p7p4-16p7-s17--16--14p12---|
 |--------------------------------12---|
4|-------------------------------------|
4|-(* right hammer quarter triplets)---|
 |-------------------------------------|
 |-------------------------------------|
   1         2         3 e & a 4 e & a   

 |-s19----17----16----17p16s14---16p14p12---|
 |------------------------------------------|
4|-(quarter triplets)-----------------------|
4|------------------------------------------|
 |------------------------------------------|
 |------------------------------------------|
    1       2         3  e  &    4   e  &
Comments