Petra - Angel Of Light Chords & Tabs

 

Angel Of Light Chords & Tabs

Petra Chords & Tabs

Version: 1 Type: Tab 0 ratings
1 star 2 stars 3 stars 4 stars 5 stars
comments

Angel Of Light Tab

   
#----------------------------------PLEASE NOTE---------------------------------#
#This file is the author's own work and represents their interpretation of the #
#song. You may only use this file for private study, scholarship, or research. #
#------------------------------------------------------------------------------##
From: usher@gaul.csd.uwo.ca (KEVIN USHER)
Subject: TAB:  PETRA --> "Angel Of Light"

           Angel Of Light
	   PETRA 1981
	   From the Album:  Never Say Die
	   by: BOB HARTMAN
	   Tabbed by: Kevin Usher


	Notations:
 	---------
	 __
  	/ / or /~  - eighth notes	  e   - eighth rest
					   					 
	/          - quarter notes	  q   - quarter rest
					  	

	         - whole notes	  h   - half rest

	 |				  
		   - half notes		  s   - sixteenth rest 
					   
	____     _				   
       /---/ or /~ - sixteenth notes       \____/    - tied notes
	

	h - hammer on
 	p - pull off
	





INTRO
				    #    #
 D	 Am  A		   B5      Fm   F 	    G	        Gm	     D		A
 __	  ___        	 | __	    _____	  | __	     ____	   |		___	 |
/ /  e   /  /    /~  q   |/ /  e   /    /  /~  q  |/ /  e   /   /   /~ 	q  | /  /  e   /  /  /~  |
	   	     	 |			  |			   |	  	 	 |
	     \__/	 |		\__/	  |		\___/	   |		  \__/	 
--------------------------------------------------------------------------------------------------

 
 D	 Am  A		   B5      Fm   F 	    G	        Gm	    	    D	
 __	  ___     |   	 | __	    _____    |	  | __	     ____     |    |	 	 	 |
/ /  e   /  /          |/ /  e   /    /       |/ /  e   /   /        |                   |
	   	     	 |			  |			   |	   	 	 |
	     \__/	 |		\__/	  |		\___/	   |		  	 |
--------------------------------------------------------------------------------------------------


|	   2		 |
|========================|
|========================|
|guit 2 or keyboard solo |


E||----------------------------|------------------------------------------||                        
B||----------------------------|-----------------12--10-------------------||
G||o---------7-----9-h10-p9--7-|---------7--------------11--9--7---------o||                         
D||o---7-h9----h9--------------|---7-h9----h9--------------------11--9---o||
A||----------------------------|------------------------------------------||                           
E||----------------------------|------------------------------------------||


 [A]

E||----------------------------|------------------------------------------|                         
B||----------------------------|-----------------12--10-------------------| 
G||o---------7-----9-h10-p9--7-|---------7--------------11--9--7----------|                          
D||o---7-h9----h9--------------|---7-h9----h9--------------------11--9----| 
A||----------------------------|------------------------------------------|                            
E||----------------------------|------------------------------------------|
   1)City lights are flashing     they call you to the streets
   2)They follow in your footsteps not knowing that you fell


E||----------------------------|------------------------------------------|                         
B||----------------------------|-----------------12--10-------------------| 
G||---------7-----9-h10-p9--7--|---------7--------------11--9--7----------|                          
D||---7-h9----h9---------------|---7-h9----h9--------------------11--9----| 
A||----------------------------|------------------------------------------|                            
E||----------------------------|------------------------------------------| 
   1)Hearts are filled with passion In everyone you meet
   2)Bumper to bumper on the       Freeway to Hell



  Em			     D      Em			     D     
|     _       ____		 |     _      ____		 |
| /  /~  s   /---/    /   e   /~ | /  /~  s  /---/    /   e   /~ |
|              			 |				 |
|                \___/		 |               \___/           | 
------------------------------------------------------------------
1)The Boulevard is waiting         It wan't to get you high
2)You lead them into wrong and you Make it look so right



  Em			     D      Em		   D	 A        
|     _       ____		 |     _     		         |
| /  /~  s   /---/   /   e   /~  | /  /~  s        /     /       |
|              			 |				 |
|                \___/		 |                               | 
------------------------------------------------------------------
1)The neon signs are waiting   To sell you anything you want to
2)You lead them into darkness and make them think you lead them into



E|----------------------------|-----------------------------------------|                         
B|----------------------------|----------------12--10-------------------| 
G|--------7-----9-h10-p9--7---|--------7--------------11--9--7----------|                          
D|--7-h9----h9----------------|--7-h9----h9--------------------11--9----| 
A|----------------------------|-----------------------------------------|                            
E|----------------------------|-----------------------------------------| 
   buy
   light	




  F#                       B5      F#			   B5 
| __			         | __			      |
|/ /  e   /~  s   /~  s    /     |/ /  e   /~  s   /~  s   /  |
|			         |			      |
|			         |			      |
---------------------------------------------------------------
1)But I know your devices         It shouldn't seem so odd
2)But I know where you're going   Too bad you're not alone


  F#                       B5       G 		  A          	   
| __			         |   | 		  ___	      | 
|/ /  e   /~  s   /~  s    /     |        q    /  /	      |	
|			         |			      |
|			         |			      |
---------------------------------------------------------------
1)You lied from the beginning     I see through your facade
2)If it wasn't for the real light I might have never known




CHORUS

[ Tab from: http://www.guitartabs.cc/tabs/p/petra/angel_of_light_tab.html ]
  D	  Am  A		    B5      Fm   F 	      G 	  Gm	       D	  A
| __	   _____      	  | __	     _____	    | __       ____	     |		  ___	 |
|/ /  e   /    /  /~  q   |/ /  e   /    /  /~  q   |/ /  e   /   /   /~  q  | /  /  e   /  /  /~|
|           		  |			    |			     |	  	 	 |
|	       \__/	  |		 \__/	    |		  \___/	     |		    \__/ |	 
-------------------------------------------------------------------------------------------------- 
 Angel of light, I see you glow in the night But you only bring darkness to my soul

 
  D	 Am  A		    B5      Fm   F 	      G	        Gm	              D	
| __	   ___     |   	  | __	     _____    |	    | __       ____     |    |	 	 	 |
|/ /  e   /  /          |/ /  e   /    /        |/ /  e   /   /        |                 |
|	   	     	  |			    |			     |	   	 	 |
|	     \____/	  |		  \__/      |	 	   \___/     |		  	 |
--------------------------------------------------------------------------------------------------
 Angel of light, You're telling me wrong is right   I won't let you're evil take  control




 ______________________________                                                                              
| 1.						
|
|			      \			 
||	    2	   	  |   ||		 
||========================|  o|| BACK TO 	
||========================|  o||  [A]		  
||guitar or keyboard solo |   ||		 
			      /	

 ______________________________
| 2.
|  						     { beat 4 }	
|    B5				      G       F	   E-------------------------------||
||    ___       ___		|       	   B-------------------------------||
||o  /--/  q   /--/   h    	|     |      /     G------------------------------o||  8 times
||o 				|     	   D------------------------------o||	
||				|		   A------------------2-------5----||
                                                   E----2------5-------------------||
-------------------------------------------------------------------------------------
1)You got the clergy working overtime to      | widen the narrow way
2)You've got politicians everywhere           | listening to what they say
3)You've got false apostles teaching lies     | perverting the only way
4)You've got principalities and Powers        | Waiting to obey
5)You've got philosophies and vain deceipts   | lying to deceive
6)You've got hate, and greed, ungodly lusts in the| deadly web you weave
7)Some how you've got so many                 | think you're not even there
8)One look is all it takes to get them        | blinded by your glare





[B]

CHORUS    
{guitar |--4--| first time only}  {keyboard or guit 2  in}
{guitar slide to D after rest  }

    D	       Am  A	       B5      Fm   F 	        G 	    Gm	       D	  A
||    __       _____         | __       _____	      | __       ____	      |		   ___	  |
||o  / /  e   /    /  /~  q  |/ /  e   /    /  /~  q  |/ /  e   /   /   /~  q | /  /  e   /  /  /~|
||o           		     |			      |			      |	  	 	  |
||	           \__/	     |		    \__/      |             \___/     |		     \__/ |	 
-------------------------------------------------------------------------------------------------- 
 Angel of light, I see you glow in the night But you only bring darkness to my soul

 
  D	 Am  A		    B5      Fm   F 	      G	        Gm	              D	
| __	   ___     |   	  | __	     _____    |	    | __       ____     |    |	 	 	 |
|/ /  e   /  /          |/ /  e   /    /        |/ /  e   /   /        |                 |
|	   	     	  |			    |			     |	   	 	 |
|	     \____/	  |		  \__/      |	 	   \___/     |		  	 |
--------------------------------------------------------------------------------------------------
 Angel of light, You're telling me wrong is right    I won't let you're evil take control


 --------------------------------------------------------------------------
| 1.            NOTE: SOLO guit 2 or keyboard
| 4 times
|
E||----------------------------|------------------------------------------||                        
B||----------------------------|-----------------12--10-------------------||
G||o---------7-----9-h10-p9--7-|---------7--------------11--9--7---------o||                         
D||o---7-h9----h9--------------|---7-h9----h9--------------------11--9---o||
A||----------------------------|------------------------------------------||                           
E||----------------------------|------------------------------------------||



  Em			     D      Em			     D     
|     _       ____		 |     _      ____		 |
| /  /~  s   /---/    /   e   /~ | /  /~  s  /---/    /   e   /~ |
|              			 |				 |
|                \___/		 |               \___/           | 
------------------------------------------------------------------
                                                            

  Em			     D      Em		   D	 A        
|     _       ____		 |     _     		         ||
| /  /~  s   /---/   /   e   /~  | /  /~  s        /     /      o||  back to 
|              			 |				o||    [B]
|                \___/		 |                               ||
------------------------------------------------------------------

                                                                     


 ---------------------------------------
| 2.
|

E|----------------------------|------------------------------------------|                        
B|----------------------------|-----------------12--10-------------------|
G|---------7------9-h10-p9--7-|---------7--------------11--9--7----------|                         
D|---7-h9----h9---------------|---7-h9----h9--------------------11--9----|
A|----------------------------|------------------------------------------|                           
E|----------------------------|------------------------------------------|


E|----------------------------|------------------------------------------|                         
B|----------------------------|-----------------12--10-------------------| 
G|---------7------9-h10-p9--7-|---------7--------------11--9--7----------|                          
D|---7-h9----h9---------------|---7-h9----h9--------------------11--9----| 
A|----------------------------|------------------------------------------|                            
E|----------------------------|------------------------------------------|


E|---------------------------------------------||
B|---------------------------------------------||
G|-----11--9--7--------------------------------||
D|--7------------11--9--7-----7--9-9-----------||
A|-------------------------9-------------------||
E|---------------------------------------------||

Comments