Peterpan - Semua Tentang Kita Chords & Tabs

 

Semua Tentang Kita Chords & Tabs

Peterpan Chords & Tabs

Version: 1 Type: Tab 1 rating
1 star 2 stars 3 stars 4 stars 5 stars
comments

Semua Tentang Kita Tab

   
Semua Tentang Kita
by PeterPan


one of my fave song!! hopefully it's rite!!



 C                         G                        
|-------------------------|-------------------------|
|-------------------------|-------------------------|
|-------------------------|-------------------------|
|-----2-----2/3--2-----0--|--------0-------0-----2--|
|--3-----3----------3-----|-----2-----2/3-----3-----|
|-------------------------|--3----------------------|

 Am7                     Em
|-----------------------|-----------------------|
|-----------1-----------|-----------0-----------|
|--------------0-----0--|--------0-----0-----0--|
|-----2-----------2-----|-----2-----------2-----|
|--0-----0--------------|-----------------------|
|-----------------------|--0--------------------|

 F                       C                         
|-----------------------|-------------------------|
|-----------1-----------|--------1----------------|
|-----0--------0-----0--|----------------0--------|
|--3-----3--------3-----|-----2-----0/2--------0--|
|-----------------------|--3----------------3-----|
|-----------------------|-------------------------|
[ Tab from: http://www.guitartabs.cc/tabs/p/peterpan/semua_tentang_kita_tab.html ]
 Am7                     G
|-----------------------|-----------------------------1--------|
|-----------1-----------|-----------1--------3-----------3-----|
|--------------0-----0--|--------0-----0--------0-----------0--|
|-----2-----------2-----|-----0-----------0--------0-----------|
|--0-----0--------------|--------------------------------------|
|-----------------------|--3-----------------------------------|


C       G      Am7      Em
Waktu terasa semakin berlalu
    F        C       Am7     G
Tinggalkan cerita tentang kita
C       G      Am7      Em
Akan tiada lagi kini tawamu
    F        C       Am7     G
Tuk hapuskan semua sepi di hati



Chorus:

 C      G          Am7     Em
Ada cerita tentang aku dan dia
    F       C         Am7    G
dan kita bersama saat dulu kala
 C      G          Am7       Em
Ada cerita tentang masa yang indah
     F       C         Am7       G
Saat kita berduka saat kita tertawa


Int.

  C         G         Am7     Em
Teringat di saat kita tertawa bersama
F       C       Am7        G
Ceritakan semua tentang kita


Chorus...
Comments