Peterpan - Mungkin Nanti Chords & Tabs

 

Mungkin Nanti Chords & Tabs

Peterpan Chords & Tabs

Version: 2 Type: Tab 0 ratings
1 star 2 stars 3 stars 4 stars 5 stars
comments

Mungkin Nanti Tab

   
Artist: Peter Pan
Album: Bintang di Surga
Title: 'Mungkin Nanti' tabs
From : allen_gg@hotmail.com

bē means bend string to 2 fret
------------------------------

	  	  A
Dan mungkin bila nanti
                  C#m
Kitakan bertemu lagi
                 D       E               A
Satu pintaku jangan kau coba tanyakan kembali
                    C#m
Rasa yang kutinggal mati
                D
Seperti hari kelmarin
              E
Saat semua di sini


Verse (pluck twice for every chord (A, C#m & D) :
[ Tab from: http://www.guitartabs.cc/tabs/p/peterpan/mungkin_nanti_tab_ver_2.html ]
         A         C#m       D            A
-----------------4--------------------------------------------|
----2--0---------5----------2-0--------2-0--2-3--3--3/2-------|
---------2/2---------6------2----2----------------------2-----|
----2----------------6------0----------2--------2--2----------|
----0----------------------------------0----------------------|
--------------------------------------------------------------|

Dan bila hatimu termenung...


Solo : A C#m D E


    A         C#m				D
---7/9-7-----------------------------------------------------|
---------10--7/9-------7-9-7---------------------------------|
-----------------10-10-------10---10-7-6----6----------------|
-----------------------------------------10----7-------------|
-------------------------------------------------------------|
-------------------------------------------------------------|


				    E

-10/12-12-10-9--9-------------------12-12-12--12/14--12------|
--------------12-10----10-12bē-10/12-------------------------|
-------------------9/11--------------------------------------|
-------------------------------------------------------------|
-------------------------------------------------------------|
-------------------------------------------------------------|
Comments