Peter Pan Speedrock - Big Toy Chords & Tabs

 

Big Toy Chords & Tabs

Peter Pan Speedrock Chords & Tabs

Version: 1 Type: Tab 0 ratings
1 star 2 stars 3 stars 4 stars 5 stars
comments

Big Toy Tab

Peter Pan Speedrock - Big Toy (www.peterpanspeedrock.nl)
Album - Killermachine

  Intro

~ = Give feedback (Turn "Middle" and "Overdrive" on max.)
e -----------------------------------------------------------------------|
B --7~-------------------------------------------------------------------|
G --------------------------------------------------------5~-------------|
D ------------------------drums enter------------------------------------|
A -----------------------------------------------------------------------|
E -----------------------------------------------------------------------|

e ---------------------------|
B -3--3--5--6--5-------------|
G -0--0----------------------| 4x
D ---------------------------|
A ---------------------------|
E ---------------------------|

e -------10---10--------10---10--------10---10--12-10-13-13-10-13-10-10--|
B -11/12-----------11/12-----------11/12---------------------------------|
G -----------------------------------------------------------------------|
D -----------------------------------------------------------------------|
A -----------------------------------------------------------------------|
E -----------------------------------------------------------------------|

e ----15-15-13----13--------15-15-13----13--------15-15-13----13---------|
B -------------15----15--------------15----15--------------15----15------|
G -----------------------------------------------------------------------|
D -----------------------------------------------------------------------|
A -----------------------------------------------------------------------|
E -----------------------------------------------------------------------|

e -------10---------10-------|
B -11-12------11-12----------|
G ---------------------12----| 1x
D ---------------------------|
A ---------------------------|
E ---------------------------|

e ---------------------------|
B ---------------------------|
G ---------------------------| 3x
D -5-5-5-5-5-5---8--10-10-10-|
A -5-5-5-5-5-5---8--10-10-10-|
E -3-3-3-3-3-3---6--8--8--8--|

e --------------------------------------------|
B --------------------------------------------|
G --------------------------------------------|
D -----------------------------------5-5-5----|
A --12-12-12-12-12-12--10--8--10--8--5-5-5----|
E --10-10-10-10-10-10--8---6--8---6--3-3-3----|

e -------------------------------------------------------------------|
B -------------------------------------------------------------------|
G -------------------------------------------------------------------|
D -5-5--5--5--5-5-5-5-5-5-5--5-5--5-5--5-5---5---5---5-----3--4--5---|
A -3-3--3--3--3-3-3-3-3-3-3--3-3--3-3--3-3---3---3---3--0--3--4--5---|
E ------------------------------------------------------0--1--2--3---|

 Verse

e ----------------------------------------------------------|
B ----------------------------------------------------------|
G ----------------------------------------------------------|
D --5-5----5-5------------------5-5----5-5------------------|
A --5-5----5-5---(bass in G)----5-5----5-5--(bass in G)-----|
E --3-3----3-3------------------3-3----3-3------------------|

e ----------------------------------------------------------|
B ----------------------------------------------------------|
G ----------------------------------------------------------|
D -5-5--5--5--5-5-5-5-5-5-5-5-5-5-5-5-5-5-5-5-----3--4--5---|
A -3-3--3--3--3-3-3-3-3-3-3-3-3-3-3-3-3-3-3-3--0--3--4--5---|
E ---------------------------------------------0--1--2--5---|

 Refrain

e ---------------------------|
B ---------------------------|
G ---------------------------| 3x
D -5-5-5-5-5-5---8--10-10-10-|
A -5-5-5-5-5-5---8--10-10-10-|
E -3-3-3-3-3-3---6--8--8--8--|

e --------------------------------------------|
B --------------------------------------------|
G --------------------------------------------|
D -----------------------------------5-5-5----|
A --12-12-12-12-12-12--10--8--10--8--5-5-5----|
E --10-10-10-10-10-10--8---6--8---6--3-3-3----|
[ Tab from: http://www.guitartabs.cc/tabs/p/peter_pan_speedrock/big_toy_tab.html ]
e -------------------------------------------------------------------|
B -------------------------------------------------------------------|
G -------------------------------------------------------------------|
D -5-5--5--5--5-5-5-5-5-5-5--5-5--5-5--5-5---5---5---5-----3--4--5---|
A -3-3--3--3--3-3-3-3-3-3-3--3-3--3-3--3-3---3---3---3--0--3--4--5---|
E ------------------------------------------------------0--1--2--3---|

e ---------------------------|
B -3--3--5--6--5-------------|
G -0--0----------------------| 4x
D ---------------------------|
A ---------------------------|
E ---------------------------|

 Verse

e ----------------------------------------------------------|
B ----------------------------------------------------------|
G ----------------------------------------------------------|
D --5-5----5-5------------------5-5----5-5------------------|
A --5-5----5-5---(bass in G)----5-5----5-5--(bass in G)-----|
E --3-3----3-3------------------3-3----3-3------------------|

e ----------------------------------------------------------|
B ----------------------------------------------------------|
G ----------------------------------------------------------|
D -5-5--5--5--5-5-5-5-5-5-5-5-5-5-5-5-5-5-5-5-----3--4--5---|
A -3-3--3--3--3-3-3-3-3-3-3-3-3-3-3-3-3-3-3-3--0--3--4--5---|
E ---------------------------------------------0--1--2--5---|

 Refrain

e ---------------------------|
B ---------------------------|
G ---------------------------| 3x
D -5-5-5-5-5-5---8--10-10-10-|
A -5-5-5-5-5-5---8--10-10-10-|
E -3-3-3-3-3-3---6--8--8--8--|

e --------------------------------------------|
B --------------------------------------------|
G --------------------------------------------|
D -----------------------------------5-5-5----|
A --12-12-12-12-12-12--10--8--10--8--5-5-5----|
E --10-10-10-10-10-10--8---6--8---6--3-3-3----|

e -------------------------------------------------------------------|
B -------------------------------------------------------------------|
G -------------------------------------------------------------------|
D -5-5--5--5--5-5-5-5-5-5-5--5-5--5-5--5-5---5---5---5-----3--4--5---|
A -3-3--3--3--3-3-3-3-3-3-3--3-3--3-3--3-3---3---3---3--0--3--4--5---|
E ------------------------------------------------------0--1--2--3---|

 Solo

e ---------------------------|
B -3--3--5--6--5-------------|
G -0--0----------------------| 4x
D ---------------------------|
A ---------------------------|
E ---------------------------|

e -------10---10--------10---10--------10---10--12-10-13-13-10-13-10-10--|
B -11/12-----------11/12-----------11/12---------------------------------|
G -----------------------------------------------------------------------|
D -----------------------------------------------------------------------|
A -----------------------------------------------------------------------|
E -----------------------------------------------------------------------|

e ----15-15-13----13--------15-15-13----13--------15-15-13----13---------|
B -------------15----15--------------15----15--------------15----15------|
G -----------------------------------------------------------------------|
D -----------------------------------------------------------------------|
A -----------------------------------------------------------------------|
E -----------------------------------------------------------------------|

e -------10-------10-------10-------10----10-----|
B -11-12----11-12----11-12----11-12----12----11--|
G -----------------------------------------------| 1x
D -----------------------------------------------|
A -----------------------------------------------|
E -----------------------------------------------|

 Break

  Palm Muted
   . . . . . . . . . . . . . . . .
e ------------------------------------3---------------|
B ------------------------------------3---------------|
G -0-0-0-0-0-0-0-0-0-0-0-0-0-0-0-0----0----drumstop---|
D ----------------------------------------------------|
A ----------------------------------------------------|
E ----------------------------------------------------|

 End

e ---------------------------------|
B ---------------------------------|
G ---------------------------------| 8x and after the last one put this
D -5-5---5-5---5-5------3-3-4-4-5--|    behind the End
A -5-5---5-5---5-5--2-2-3-3-4-4-5--|
E -3-3---3-3---3-3--0-0-1-1-2-2-3--|

e ---------------------------------|
B ---------------------------------|
G ---------------------------------|
D ---------------------------------|
A --5--5---5--5---5--5----5--5--5--|
E --3--3---3--3---3--3----3--3--3--|
Comments