Peter Murphy - Uneven And Brittle Chords & Tabs

 

Uneven And Brittle Chords & Tabs

Peter Murphy Chords & Tabs

Version: 1 Type: Bass Tab 0 ratings
1 star 2 stars 3 stars 4 stars 5 stars
comments

Uneven And Brittle Bass Tab

   
-------------------------------------------------------------------------------
                        UNEVEN & BRITTLE - PETER MURPHY
-------------------------------------------------------------------------------
Tabbed by: Myself
E-mail: h.abualtin@yahoo.com

Tuning: Standard

Uneven & Brittle off of Ninth. Pretty easy and straight forward. Enjoy!


G|----------------------------------| >>Repeat this 5 times total<<
D|----------------------------------| 
A|----------------------------------| (You can slide a bit here as you move
E|---1-33---3-666---6-111---1-333---| along the frets, but don't overdo it)

G||--------------------------------------------------------------------|
D||o-------------------------------------------------------------------|
A||o---------13---------13------------10-----10----------8-----8-------|
E||----11-11-----11--11----11-11--8-8----8-8----8-8--6-6---6-6---6-6---|

G|-----------------------||
D|----------------------o|| >>Repeat this 3 times total<<
A|-------3-----3--------o||
E|---1-1---1-1---1-1-----|| (This part plays along with the drum beat)
[ Tab from: http://www.guitartabs.cc/tabs/p/peter_murphy/uneven_and_brittle_btab.html ]
G|----------------------------------| >>Repeat this 4 times total<<
D|----------------------------------| 
A|----------------------------------|
E|---1-33---3-666---6-111---1-333---|

G||--------------------------------------------------------------------|
D||o-------------------------------------------------------------------|
A||o---------13---------13------------10-----10----------8-----8-------|
E||----11-11-----11--11----11-11--8-8----8-8----8-8--6-6---6-6---6-6---|

G|-----------------------||
D|----------------------o|| >>Repeat this 3 times total<<
A|-------3-----3--------o||
E|---1-1---1-1---1-1-----||

>>PAUSE (about 2:45 into the song)<<

>>Kicks in again at about 3:06<<
G||--------------------------------------------------------------------|
D||o-------------------------------------------------------------------|
A||o---------13---------13------------10-----10----------8-----8-------|
E||----11-11-----11--11----11-11--8-8----8-8----8-8--6-6---6-6---6-6---|

G|-----------------------||
D|----------------------o|| >>Repeat this 9 times total and fade out at end<<
A|-------3-----3--------o||
E|---1-1---1-1---1-1-----||




| /  slide up
| \  slide down
| h  hammer-on
| p  pull-off
| ~  vibrato
| +  harmonic
| x  Mute note
===============================================================================
Comments