Peter Gabriel - Solsbury Hill Chords & Tabs

 

Solsbury Hill Chords & Tabs

Peter Gabriel Chords & Tabs

Version: 2 Type: Tab 0 ratings
1 star 2 stars 3 stars 4 stars 5 stars
comments

Solsbury Hill Tab

   
----------------------------------------------------------------------------
			     Solsbury Hill - Peter Gabriel
----------------------------------------------------------------------------
Tabbed by: Ryan Baker

Email: ohiogrown05@netzero.net

Tuning: Standard


 I have found many versions of this song and none have sounded correct.  
 So this is my version of the song.  I have played it for many people
 with wonderful feedback.  I will tab only the chord changes, the rhythm
 you'll have to put together yourself.  

 Intro:
[ Tab from: http://www.guitartabs.cc/tabs/p/peter_gabriel/solsbury_hill_tab_ver_2.html ]
e|----------------------------------------------------0-------------------|
B|----------------------------------------------------2-------------------|
G|-----5-6/7-7-6-6-7-6--4-----------------------5-6-4-2-------------------|
D|-6-7---6/7-7-7-7-7-7--6---Repeat x3 ------6-7---7-6-2-------------------|
A|----------------------------------------------------0-------------------|
E|------------------------------------------------------------------------|
 
 Verse:
 
e|-0-----0---2---0----2---2---0---2---0-------0---0-------0---------------|
B|-2--0--2---2---0----2---2---0---2---2---0---2---2---0---2---------------|
G|-2--1--2---2---1----2---2---1---2---2---1---2---2---1---2---------------|
D|-2--2--2---4---0----4---4---0---4---2---2---2---2---2---2---------------|
A|-0--0--0---4---2----4---4---2---4---0---0---0---0---0---0---------------|
E|-----------2---0----2---2---0---2---------------------------------------|

e|-2---0---2---2---0---2---5---4---2---5---4---2---5---4---2--2-2-2-------|
B|-2---0---2---2---0---2---3---5---3---3---5---3---3---3---3--3-3-3-------|
G|-2---1---2---2---1---2---2---4---2---2---4---2---2---2---2--4-4-4-------|
D|-4---0---4---4---0---4---0---0---0---0---0---0---4---4---4--4-4-4-------|
A|-4---2---4---4---2---4---------------------------2---2---2--2-2-2-------|
E|-2---0---2---2---0---2--------------------------------------------------|

e|-5---4---2--------------------------------------------------------------|
B|-3---3---3--------------------------------------------------------------|
G|-2---2---2---4---6---7---9----------------------------------------------|
D|-4---4---4---4---6---7---9-----Repeat Intro-----------------------------|
A|-2---2---2---2---4---5---7----------------------------------------------|
E|------------------------------------------------------------------------|




| /  slide up
| \  slide down
| h  hammer-on
| p  pull-off
| ~  vibrato
| +  harmonic
| x  Mute note
============================================================================
Comments