Peter Frampton - Show Me The Way Chords & Tabs

 

Show Me The Way Chords & Tabs

Peter Frampton Chords & Tabs

Version: 3 Type: Tab 0 ratings
1 star 2 stars 3 stars 4 stars 5 stars
comments

Show Me The Way Tab

  When playing this song he uses a talk box to get that cool guitar sound,
but everything else in this song is played clean with no distortion.


 Intro
e|----------------------------------------------|
B|---7-7-7-7--7-7-7-7--3-3-3-3---3-3---5-5------|
G|---7-7-7-7--7-7-7-7--4-4-4-4---3-3---5-5------| Repeat 2 Times
D|---7-7-7-7--7-7-7-7--4-4-4-4---3-3---5-5------|
A|---5-5-5-5--4-4-4-4--2-2-2-2---1-1---3-3------|
E|----------------------------------------------|

 
  Intro Riff (With talk box)
e|-------------------------------------------------------------|
B|--------------------------8----------------------------------|
G|-------4-6-7-----7-10-9-7---7-----------4-6-7-----7-10-9-7---|
D|--7--7--------9----------------9--7---7--------9-------------|
A|-------------------------------------------------------------|
E|-------------------------------------------------------------|

[ Tab from: http://www.guitartabs.cc/tabs/p/peter_frampton/show_me_the_way_tab_ver_3.html ]
  
Main Verse
e|-------------------------------------------------------|
B|-7-7-7-7-7-7-7-7--7-7-7-7-7-7-7-7--4-4-4-4-4-4-4-4-----|
G|-7-7-7-7-7-7-7-7--7-7-7-7-7-7-7-7--4-4-4-4-4-4-4-4-----| 
D|-7-7-7-7-7-7-7-7--7-7-7-7-7-7-7-7--4-4-4-4-4-4-4-4-----|
A|-5-5-5-5-5-5-5-5--4-4-4-4-4-4-4-4--2-2-2-2-2-2-2-2-----|
E|-------------------------------------------------------|


e|-----------------------------------|
B|--3-3-3-3-3-3-3-3----3-3--5-5------|
G|--3-3-3-3-3-3-3-3----3-3--5-5------| Repeat at least 2 Times
D|--3-3-3-3-3-3-3-3----3-3--5-5------|
A|--1-1-1-1-1-1-1-1----1-1--3-3------|
E|-----------------------------------|



  Pre-Chorus
e|--0-0-0-0-0-0-0-0---3-3-3-3-3-3-3-3----|
B|--2-2-2-2-2-2-2-2---3-3-3-3-3-3-3-3----|
G|--2-2-2-2-2-2-2-2---0-0-0-0-0-0-0-0----| 
D|--2-2-2-2-2-2-2-2---0-0-0-0-0-0-0-0----|
A|--0-0-0-0-0-0-0-0---2-2-2-2-2-2-2-2----|
E|--------------------3-3-3-3-3-3-3-3----|



  Chorus
e|--2-2-2-2-2-2-2-2---3-3-3-3-3-3-3-3----|
B|--3-3-3-3-3-3-3-3---3-3-3-3-3-3-3-3----|
G|--4-4-4-4-4-4-4-4---0-0-0-0-0-0-0-0----| Repeat as many times as needed
D|--4-4-4-4-4-4-4-4---0-0-0-0-0-0-0-0----|
A|--2-2-2-2-2-2-2-2---2-2-2-2-2-2-2-2----|
E|--------------------3-3-3-3-3-3-3-3----|



  Ending
e|-----------------------------------------------|
B|---7-7-7-7--7-7-7-7--3-3-3-3---3-3---5-5--7----|
G|---7-7-7-7--7-7-7-7--4-4-4-4---3-3---5-5--7----| 
D|---7-7-7-7--7-7-7-7--4-4-4-4---3-3---5-5--7----|
A|---5-5-5-5--4-4-4-4--2-2-2-2---1-1---3-3--5----|
E|-----------------------------------------------|




                                    Tabbed by AmericanIdiot46
Comments