Peter Frampton - Feel Like I Do Chords & Tabs

 

Feel Like I Do Chords & Tabs

Peter Frampton Chords & Tabs

Version: 4 Type: Tab 0 ratings
1 star 2 stars 3 stars 4 stars 5 stars
comments

Feel Like I Do Tab

   
Song Title: Do you feel like I do
From Album: Frampton comes Alive
Transcribed By: Da7n
Contact Email:
Tuning (if not standard):
Capo: no
Notes on how to play it:  Listen to
the record to get the timing and feeling.
TAB:
sorry the 3rd bar won't fit in the space - try opening it as a text file to get even straight lines

     (D)
e |-----------------------------------------------------------------|
B |-1-3-1~----------------------------------------------------------|
G |--2-----2-0-------------1p0-------------1p0----------------------|
D |--------------------3-0----3-0-------3-0---3-0-------------------|
A |------------------------------3----------------3-----/5--3--0--3-|
E |-----------------------------------------------------------------|

     (with organ, playing harmonies)
e |-----------------------------------------------------------------|
B |-1-3-1~----------------------------------------------------------|
G |--2-----(0h2p0)-0-------1p0-------------1p0----------------------|
D |--------------------3-0----3-0-------3-0---3-0-------------------|
A |------------------------------3----------------3-----/5~~~~~~~---|
E |-----------------------------------------------------------------|

e |------10--------------------------------------------------------------------------------|
b |-13-10--13-10--------------------------------------------13h15-13-10h13-8h10-6h8-6p5----|
g |-------------12~--10--13p12-10-------10--13p12-10--10-/14----------------------------7--|
d |--------------------12--------12-10~---12--------12-------------------------------------|
a |----------------------------------------------------------------------------------------|
E |----------------------------------------------------------------------------------------|

[ Tab from: http://www.guitartabs.cc/tabs/p/peter_frampton/feel_like_i_do_tab_ver_4.html ]
e |------10---------------------------------------------------------|
b |-13-10--12-10----------------------------------------------------|
g |-------------12~--10--13b12-10-------10--12-10-------------------|
d |--------------------12--------12-10~---12-----12-10--12~12~12~12~|
a |-----------------------------------------------------------------|
E |-----------------------------------------------------------------|

     (F)
E |-----------------------------------------------------------------|
B |-----------------------------------------------------------------|
G |-------10-------------------------------------------------12~----|
D |-13-10---13-10-------------------------------------/10-13--------|
A |--------------13~--11--13-11-------11--13-11--11-----------------|
E |---------------------13-----13-11~---13-----13-------------------|

e |-11--13-11~------------------------------------------------------|
B |---13------13-11------12\11---------------12\11--------11-13~-15~|
G |-----------------13-10-----13~-10----13-10-----13~-10-13---------|
D |---------------------------------13------------------------------|
A |-----------------------------------------------------------------|
E |-----------------------------------------------------------------|

Verse:
   (Barre cords, 8/8) 
|AA--AA--|EE--EE--|AA--AA--|rest----|
|AA--AA--|EE--EE--|A-------|A7------|

Chorus:
|D-2-3-4-|F-2-3-4-|C-2-G-G-|D-2-A-C-|
|D-2-3-4-|F-2-3-4-|C-2-G-G-|D-2-3-4-|

in the chorus, he plays a few fills in the 3rd and 4th measures, not the whole chords

It'd be nice to see someone do the whole song...



| / slide up
| \ slide down
| h hammer-on
| p pull-off
| ~ vibrato
| + harmonic
| x Mute note
Comments