Peter Frampton - Feel Like I Do Chords & Tabs

 

Feel Like I Do Chords & Tabs

Peter Frampton Chords & Tabs

Version: 2 Type: Tab 0 ratings
1 star 2 stars 3 stars 4 stars 5 stars
comments

Feel Like I Do Tab

   
standard tuning:E,A,D,G.B,E
Peter Frampton do u feel like i do
legend
------
h=hammer on
p=pull off
B=bend

e|-8---10h11p10------
B|---10---------10-8-
G|-------------------
D|-------------------
A|-------------------
E|-------------------
[ Tab from: http://www.guitartabs.cc/tabs/p/peter_frampton/feel_like_i_do_tab_ver_2.html ]
e|-------------------
B|-------------------
G|-10-7-------10-7---  (X2)
D|------8h9p8--------
A|-------------------
E|-------------------
                    ^___________
e|-------------------           |
B|-------------------           |
G|----7--------------           | 
D|-10---10--7--10----           |
A|-------------------           |
E|-------------------           |
play this part^ right after this|
Comments