Peter Frampton - Baby I Love Your Way Chords & Tabs

 

Baby I Love Your Way Chords & Tabs

Peter Frampton Chords & Tabs

Version: 1 Type: Bass Tab 0 ratings
1 star 2 stars 3 stars 4 stars 5 stars
comments

Baby I Love Your Way Bass Tab

Baby, I love your way
Peter Frampton

4/4 time, standard tuning

Intro
|-R----7----|-5----------|-------------|-----------|
|-----------|------------|-------------|-----------|
|-----------|--------3---|-0--0--------|-----012---|
|-----------|----------2-|-------3--3--|-1-3-------|

Verse x3 (Shadows grow...)
|------------|-----05------|-------------|---2/10-----------|
|*-2----0----|-------------|-------------|-0--------0-0---01|
|*-----------|-3-------3-2-|-0----0--0-23|---------0-0---3--|
|------------|-------------|-----0-------|------------------|

(Suddenly the day...)
|-----------|--------------|----2-----2--|---2/10----------|
|-2----0----|--------------|-----2-------|-0--------0-0--0-|
|-----------|-3-----3--3-2-|-0-----0-----|---------0----0--|
|-----------|-----3--------|-------------|-----------------|

(don't hesitate...)
|-------0-----|-----05-0----|------------2-|-5----5------|
|------1----00|-------------|---4-----4-4--|-----------0-|
|-------------|-3-----------|--------------|--------23---|
|-3--3--------|-----------3-|-1----11------|-------------|

(Ooh baby I love your way...)
|-------------|---------------|--------------|----------------|
|-2---------2-|----3----------|----2-------2-|-----4----------|
|-----012-----|-------00R0R---|------010-----|--------00R0R---|
|-------------|-1----3-----31-|-0------------|-1-1---3-----31-|

(Wanna be with you...)
|---------------|---------------|Now play 1, repeat to Verse,
|------2------2-|----4----------|then play 2, repeat to verse
|-----2--2-2----|-------00R0R12-|again, then play 3.
|-0--0----------|-1----3--------|
[ Tab from: http://www.guitartabs.cc/tabs/p/peter_frampton/baby_i_love_your_way_btab.html ]
1
|-------------|----5-0-------|---2------0--|---------------|
|-2--2-20--0--|--------------|----2--------|---4----------*|
|-------------|-3-----3--3---|-0---0-------|------012-2---*|
|-------------|------------3-|-------3-----|-1--13---------|

2
|-------------|----5-05-0----|----2--2--2---|---------------|
|-2--2--0--0--|--------------|------2-------|-0--0--------0-|
|-------------|-33-------3-2-|-0---------023|------0-----0--|
|-------------|--------------|--------------|---------0-1---|

|-------------|--------------|--------------|----7-----7---|
|-2--2--1--0--|--------------|----------2---|-0-----0----0-|
|-------------|-3--3--3--3-2-|-0--0--0----0-|--------------|
|-------------|------3-------|------0-------|--------------|

(don't hesitate...)
|----------0--|----0--7-5-0---|--------------|--------------|
|-------1-----|---------------|-3--3--3------|------------0-|
|-------------|-3-----------3-|------3-----01|-2--2--2--2---|
|-3--3--------|---------------|----------13--|------1-------|

3 (Ooh baby, I love your way...)
|---------------|---------------|---------------|--------------|
|------2--------|----2----------|-2--2--------02|-3--3---------|
|-----2--2--2---|-------00R0-12-|------012--23--|-------0-0-12-|
|-0--0--------00|-1----3--------|---------------|--------------|

(Wanna be with you...)
|---------------|--------------|-------------|--------------|----------||
|------2--------|----3---------|-2--2--------|--------------|----------||
|-----2--2--2-23|-------0-0-12-|------012----|-3---2-0-0----|----------||
|-0--0-------1--|-1----3-------|-----3-------|-----------31-|-0--------||


Whole note:  |-1--------|
Dotted half: |-1------|
Half note:   |-1----|
Quarter note:|-1--|
Eighth note: |-1-|
Sixteenth:   |-1|
R=rest (rests work the same way)
New measure: |-
             |-
             |-
             |-

Questions, comments: sk8now22@sbcglobal.net
Comments