Pete Yorn - Turn Of The Century Chords & Tabs

 

Turn Of The Century Chords & Tabs

Pete Yorn Chords & Tabs

Version: 1 Type: Tab

Turn Of The Century Tab

Intro/Verse
e|--------------------------------|
B|------0-0----0-0----0-0----0-0--|
G|------0-0----0-0----0-0----0-0--|
D|------0-0----0-0--2------2------|
A|---3-------3--------------------|
E|--------------------------------|
[ Tab from: http://www.guitartabs.cc/tabs/p/pete_yorn/turn_of_the_century_tab.html ]
e|--5--7--5--7--5--7---8---10--7---5--7--5--7--3-|
B|-----------------------------------------------|
G|-----------------------------------------------|
D|-----------------------------------------------|
A|-----------------------------------------------|
E|-----------------------------------------------|

The piano part

Chorus
e|-----------------|
B|--3--3--3-----0--|
G|--0--0--0-----2--|
D|--0--0--2-----2--|
A|--2--x--2-----0--|
E|--3--1--0--------|
"And I wondered if we'd speak again"

Hope u like it! simple as that! enjoy it!