Pete Yorn - Strange Condition Chords & Tabs

 

Strange Condition Chords & Tabs

Pete Yorn Chords & Tabs

Version: 1 Type: Tab 0 ratings
1 star 2 stars 3 stars 4 stars 5 stars
comments

Strange Condition Tab

   
-------------------------------------------------------------------------------
			   STRANGE CONDITION - Pete Yorn
-------------------------------------------------------------------------------
Tabbed by: Paul C.
Email: pcorning@purdue.edu

Tuning: Std.

Like many other really good songwriters, Pete likes to take regular old chords
and do something weird to them (like leave off or add a finger) and it makes
his sound really dynamic & pretty.  I'll put the regular note above the tabs 
with a star to show it's been changed.  If there's a "t" that means I fret the 
note with my thumb.

Intro:

"Read me the letter, baby..." and then again for "Stories and cigarettes..."
      A*  F#*   D*   A*
e|----0----0----0----0-------------------------------------------------------|
B|----0----0----0----0-------------------------------------------------------|
G|----6----2----6----6-------------------------------------------------------|
D|----7----4----7----7-------------------------------------------------------|
A|----7----4----5----7-------------------------------------------------------|
E|----5----2t---0----5-------------------------------------------------------|

"And I wanna know... Cos I want you to know..."
      E                      D*   A*
e|----0----------------------0----0------------------------------------------|
B|----0----------------------0----0------------------------------------------|
G|----1----------------------6----6------------------------------------------|
D|----2----------------------7----7------------------------------------------|
A|----2----------------------5----7------------------------------------------|
E|----0----------------------0----5------------------------------------------|

"And it's a strange condition..."
     C#m*  D*    (play this 3x)
e|----0----0-----------------------------------------------------------------|
B|----0----0-----------------------------------------------------------------|
G|----6----6-----------------------------------------------------------------|
D|----6----7-----------------------------------------------------------------|
A|----4----5-----------------------------------------------------------------|
E|----0----0-----------------------------------------------------------------|
[ Tab from: http://www.guitartabs.cc/tabs/p/pete_yorn/strange_condition_tab.html ]
"...what I came for"
     Bm*   E
e|----0----0-----------------------------------------------------------------|
B|----3----0-----------------------------------------------------------------|
G|----4----1-----------------------------------------------------------------|
D|----4----2-----------------------------------------------------------------|
A|----2----2-----------------------------------------------------------------|
E|----0----0-----------------------------------------------------------------|


Verse - now everything actually moves down a whole step but he sings it higher
"Send me the money baby"  (repeat once)
      G*  Em*   C*   G*
e|---(3)--(3)--(3)--(3)------------------------------------------------------|
B|----3----3----3----3-------------------------------------------------------|
G|----0----0----0----0-------------------------------------------------------|
D|----0----2----2----0-------------------------------------------------------|
A|----2----2----3----2-------------------------------------------------------|
E|----3----0----0----3-------------------------------------------------------|

"Yeah I want you to know"     "cos I want you to know"
      D                              C*   G*
e|----2-----------------------------(3)--(3)---------------------------------|
B|----3------------------------------3----3----------------------------------|
G|----2------------------------------0----0----------------------------------|
D|----0------------------------------2----0----------------------------------|
A|-----------------------------------3----2----------------------------------|
E|----------------------------------------3----------------------------------|

Chorus
"And its a...Strange condition..." play 3x
      Bm   C
e|----2----3-----------------------------------------------------------------|
B|----3----5-----------------------------------------------------------------|
G|----4----5-----------------------------------------------------------------|
D|----4----5-----------------------------------------------------------------|
A|----2----3-----------------------------------------------------------------|
E|----2----3-----------------------------------------------------------------|

"dont know what I came for..."   "I want ya to know...." repeat
      Am   D                        C*   D
e|----0----2-----------------------(3)---2-----------------------------------|
B|----1----3------------------------3----3-----------------------------------|
G|----2----2------------------------0----2-----------------------------------|
D|----2----0------------------------2----0-----------------------------------|
A|----0-----------------------------3----------------------------------------|
E|---------------------------------------------------------------------------|

You can figure out the rest....the chords dont change!  the lead is super easy 
too.  Comments and suggestions, gripes and complaints are welcome....
pcorning@purdue.edu

PEACE!

| /  slide up
| \  slide down
| h  hammer-on
| p  pull-off
| ~  vibrato
| +  harmonic
| x  Mute note
===============================================================================
Comments