Pete Yorn - Lose You Chords & Tabs

 

Lose You Chords & Tabs

Pete Yorn Chords & Tabs

Version: 1 Type: Tab 0 ratings
1 star 2 stars 3 stars 4 stars 5 stars
comments

Lose You Tab

Last chord of the chorus could possibly be changed but other than that,
the whole things sounds great...but hey it's just a great song!

Standard Tuning

(opening tune on piano)
e|----3---5-0---3----------|
b|---------------3-0--1-1--|
g|-------------------------|
d|-------------------------|
a|-------------------------|
e|-------------------------|

(verse)
e|-3--------------3-----------------3---------------3-------------|
b|-3--------------3-----------------3---------------3-------------|
g|----------------------------------2-----------------------------|
d|----------------2---------------------------------2-------------|
a|-2--------------2---------------------------------3-------------|
e|-3--------------------------------------------------------------|
  I'm...taking a ride...off to one side...it is a personal thing...

(same for rest of verse)

(chorus)
e|-----------------------------3---------------3-----|
b|-1-------------------------------------------2-----|
g|-2-------------------------------------------3-----|
d|-2--------------2----------------------------------|
a|----------------2------------2---------------------|
e|-----------------------------3---------------------|
  I don't need a better thing...I'd settle for less...
[ Tab from: http://www.guitartabs.cc/tabs/p/pete_yorn/lose_you_tab.html ]
(chorus cont.)
e|---------------------------3--------------3--------------------------3---|
b|-1----------------------------------------2--------------------------3---|
g|-2----------------------------------------3------------------------------|
d|-2--------------2--------------------------------------------------------|
a|----------------2----------2-----------------------------------------2---|
e|---------------------------3-----------------------------------------3---|
  It's another thing for me..I just have to wander through this world..alone

(right after the chorus--first time round just play the chords, after second
and third chorus play chorus and add words...)
e|-3---------------------3----------------3------3----------------3------3->
b|-3--------------3------3----------------3------3----------------3------3->
g|-----------------------------------------------------------------------2->
d|----------------2-----------------------2------2----------------2-------->
a|-2--------------3------2----------------3------2----------------3-------->
e|-3---------------------3------------------------------------------------->
  Cuz I'm gonna' lose ya...yeh I'm gonna lose ya...if I'm gonna' lose ya...>

(you can play that last chord or continue on with the verse progression)
e|------------------------3--|
b|------------------------3--|
g|---------------------------|
d|---------------------------|
a|------------------------2--|
e|------------------------3--|
..I'll lose ya now for good

Sweet! Enjoy!
Comments