Pete Tong - Calling Chords & Tabs

 

Calling Chords & Tabs

Pete Tong Chords & Tabs

Version: 1 Type: Tab

Calling Tab

Intro
[ Tab from: http://www.guitartabs.cc/tabs/p/pete_tong/calling_tab.html ]
-------------------------------------------------------------------|
-------------------------------------------------------------------|
-------------------------------------------------------------------|  x679
-------------------------------------------------------------------|
-----------------3-3-3-3-3-3-3-3-----------------------------------|
-5-5-5-5-5-5-5-5-----------------1-1-1-1-1-1-1-1--3-3-3-3-3-3-3-3--|


-------------------------------------------|
-------------------------------------------|
----------5-----5--------------------------|
-7-----7--5-----5--3-----3--5-----5--7-----|   x 598
-7-----7--3-----3--3-----3--5-----5--7-----|
-5-----5-----------1-----1--3-----3--5-----|


Attm JCG