Pete Schmidt - Still In Love Chords & Tabs

 

Still In Love Chords & Tabs

Pete Schmidt Chords & Tabs

Version: 1 Type: Tab

Still In Love Tab

Pete Schmidt - Still in Love
Tabbed by Kris Wainscott and Randy Zwitch
comments@peteschmidttabs.com

Standard tuning


(1)                                     
E---0-----0-------------0-----4-----------2-----------0-----|
B---5-----5-----5/7-----0-----------0-----------0-----------|
G---6-----6-------------2-----------------------------------|
D---6-----6-------------2-----------------------------------|
A---4-----4-------------0-----------------------------------|
E-----------------------------------------------------------|
                                                                        

(2)                                            
E---0-----0-----0--|---0-----0-----0--|
B---0-----0-----0--|---0-----0-----0--|
G---6-----8-----6--|---4-----6-----4--|
D---4-----6-----6--|---4-----6-----4--|
A---0-----0-----4--|---0-----4-----2--|
E------------------|------------------|
                                                                        
[ Tab from: http://www.guitartabs.cc/tabs/p/pete_schmidt/still_in_love_tab.html ]
(3a)                                               
E---0-----0---|--0-----0-----0--------|
B---0-----0---|--0-----0-----0--------|
G---6-----8---|--6-----4-----2--------|
D---4-----6---|--6-----4-----2---(x2)-|
A---0-----0---|--4-----2-----0--------|
E-------------|-----------------------|
                                                                        

(3b) *Use pointer finger for the D string notes, pinky for the G string notes.  This will allow you
to fret the 7th fret on the high E string for the last chord with your middle finger.
                                          
E------------|-----------|---------------7--|
B------------|-----------|---------------x--|
G------8--9--|---11--13--|---13--11--9---9--|
D------6--7--|---9---11--|---11---9--7---7--|
A------------|-----------|----0-------------|
E------------|-----------|------------------|
                                                                        

(4) With random muted strums
                                              
E---0-----0-----0---|
B---0-----0-----0---|
G---6-----6-----4---|
D---6-----6-----4---|
A---4-----x-----2---|
E---------4---------|
                                                                        

(5) Essentially the same as part (1)
                                       
E----0-----0-----0-----2p0--|---0-----0-----0-----2-----4p2p0--|
B----0-----0-----0-----0----|---0-----0-----0-----0-----0------|
G----6-----4-----2-----2----|---6-----4-----2-----2-----2------|
D----6-----4-----2-----2----|---6-----4-----2-----2-----2------|
A----4-----2-----0-----0----|---4-----2-----0-----0-----0------|
E---------------------------|----------------------------------|