Pete Schmidt - Dreams Chords & Tabs

 

Dreams Chords & Tabs

Pete Schmidt Chords & Tabs

Version: 1 Type: Tab

Dreams Tab

Pete Schmidt - Dreams
Tabbed by Randy Zwitch
comments@peteschmidttabs.com

"No safe bet" album version

Capo 2

(1)
e---------------------------------------------------|
b----0-----0----0-----0----0---0---0---0----0---0---|
g----0h2---0----0h2---4----0---0h2-0---0h2--4---0---|
d----0-----0----0-----0----0---x---x---x----x---x---|
a----x-----x----x-----x----x---3---3---3----3---3---|
E----3-----3----3-----3----3------------------------|
[ Tab from: http://www.guitartabs.cc/tabs/p/pete_schmidt/dreams_tab.html ]
(2)           (3)        
e------------|---------3---------------------|
b---0---0----|--1--1---3---------0---3---3---|
g---0---0----|--2--0---0---------0---2---0---|
d---x---0----|--3--2---0--(x2)---2---0---2---|
a---3---x----|--3--3---2---------2---x---3---|
E-------3----|---------3---------0---2-------|


*Part 3 is the "If one thing is true...." part


-----------------------------------------------------------------------------------
Capo 4th fret for "Non-live" mp3
Capo 3rd fret for "Luther's Blues" mp3

(1)
e---------------------------------------------------|
b----0-----0----0-----0----0---0---0---0----0---0---|
g----0h2---0----0h2---4----0---0h2-0---0h2--4---0---|
d----0-----0----0-----0----0---x---x---x----x---x---|
a----x-----x----x-----x----x---3---3---3----3---3---|
E----3-----3----3-----3----3------------------------|

(2)            (3)        
e------------|------------|
b---0---0----|---0----0---|
g---0---0----|---0----0---|
d---x---0----|---2----x---|
a---3---x----|---2----3---|
E-------3----|---0--------|