Pete Schmidt - Angel Chords & Tabs

 

Angel Chords & Tabs

Pete Schmidt Chords & Tabs

Version: 1 Type: Tab

Angel Tab

Pete Schmidt - Angel
Tabbed by Randy Zwitch
comments@peteschmidttabs.com

Standard Tuning, Capo 5 for original mp3 demo
All of Pete Schmidt's available tabs may be found at http://www.peteschmidttabs.com/

Capo 3 for 'No safe bet' album version
[ Tab from: http://www.guitartabs.cc/tabs/p/pete_schmidt/angel_tab.html ]
(1)
e-------0--0----2---4----2------|------0---0---2---0------|
b---0------0----0---0----0---2--|---0------0---0---0---2--|
g---4------2----2---2----2---2--|---4------2---2---2---2--|
d---4------2----2---2----2---2--|---4------2---2---2---2--|
a---2------0----0---0----0---0--|---2------0---0---0---0--|
E-------------------------------|-------------------------|

(2)
e-----0------------|----0---0---0-------|---0----0----0---0--|--0--|
b-----0----0-------|----0---0---0-------|---0----0----0---0--|--0--|
g-----2----4-------|----4---4---2-------|---2----x----2---4--|--9--|
d-----2----4--(x3)-|----2---4---2--(x3)-|---2----6----2---4--|--9--|
a-----x----2-------|----4---2---0-------|---x----6----0---2--|--7--|
E-----2------------|--------------------|---2----4-----------|--0--|

(3)
e---0---0---|
b---0---0---|
g---9---1---|
d---9---2---|
a---7---2---|
E---0---0---|