Pete Murray - Geroges Helper Chords & Tabs

 

Geroges Helper Chords & Tabs

Pete Murray Chords & Tabs

Version: 1 Type: Bass Tab

Geroges Helper Bass Tab

Intro/Chorus
G ------------------------------------|
D ------------------------------------|
A -12--12--10121312-9-10--10-10--9-10-|
E ------------------------------------|

G --------------------------------------|
D --------------------------------------|
A 0-1-2-3--3--------5--5-5--3-5--8-9-10-|
E ------------0-1-3---------------------|
[ Tab from: http://www.guitartabs.cc/tabs/p/pete_murray/geroges_helper_btab.html ]
G ----9h119---------------------------|
D 12--------1210----------------------|
A --------------12-12-10--10-10--9-10-|
E ------------------------------------|

G ---------------------------|
D ---------------------------|
A 0-1-2-3--3--------5~~~~~~~-|
E ------------0-1-3----------|

Verse
just guitar and vocals, then...

G -------------------|
D -------------------|
A 5-5-------3-3------|
E -----5-5-------3-3-|

Last Verse

G -------------------|
D 7-7-------5-5------|
A -----7-7-------5-5-|
E -------------------|