Pete Murray - Georges Helper Chords & Tabs

 

Georges Helper Chords & Tabs

Pete Murray Chords & Tabs

Version: 2 Type: Tab

Georges Helper Tab

This is my first tab so please be kind... any questions or comments vbbish@hotmail.com


Intro/Chorus:

e [---------------------------------------------------]
b [---------------------------------------------------]
G [-----------------------------5---------7-----------]
D [-------7---------5-----------5---------7-----------]
A [-------7---------5-----------3---------5-----------]
E [-------5---------3---------------------------------]




Verse: 
[ Tab from: http://www.guitartabs.cc/tabs/p/pete_murray/georges_helper_tab_ver_2.html ]
e [---------------------------------------------------]
b [---------------------------------------------------]
G [-------7---------------------5---------------------]
D [-------7---------7-----------5---------5-----------]
A [-------5---------7-----------3---------5-----------]
E [-----------------5---------------------3-----------]


Ending: "Here you all just sit here smiling"

e [---------------------------------------------------]
b [---------------------------------------------------]
G [-----------------9---------------------7-----------]
D [-------7---------9-----------5---------7-----------]
A [-------7---------7-----------5---------5-----------]
E [-------5---------------------3---------------------]