Pete Murray - Freedom Chords & Tabs

 

Freedom Chords & Tabs

Pete Murray Chords & Tabs

Version: 1 Type: Tab 0 ratings
1 star 2 stars 3 stars 4 stars 5 stars
comments

Freedom Tab

   
Freedom by Pete Murray

For strumming listen to the song, very simple and easy to pick up.

Intro/Verse

e|-----------------------------------------------|
B|-----------------------------------------------|
G|------4------4-----4------4--------4-----------|
D|------2------2-----2------2--------2-----------|
A|----------------------3-3----3-0-0----0--------|
E|-0-0----0-0-----0------------------------------|

0

Chorus
[ Tab from: http://www.guitartabs.cc/tabs/p/pete_murray/freedom_tab.html ]
e|------------------|-------------------|
B|-0-0-1-0-0-1-0-0--|--1-1-1-1-1-1-1-1--|
G|-2-2-2-2-2-2-2-2--|--0-0-0-0-0-0-0-0--|
D|-2-2-2-2-2-2-2-2--|--2-2-2-2-0-0-0-0--|
A|-0-0-0-0-0-0-0-0--|--3-3-3-3-2-2-2-2--|
E|------------------|-------------------|
   Am                  C      C/B 

Outro


e|--------------|----------------------| x2
B|--------------|----------------------|
G|---4----------|----------------------|
D|---2----------|----------------------|
A|-----------3--|-----2---0------------|
E|--------------|------------0---------|
   

Comments