Pete Murray - Feeler Chords & Tabs

 

Feeler Chords & Tabs

Pete Murray Chords & Tabs

Version: 2 Type: Tab 0 ratings
1 star 2 stars 3 stars 4 stars 5 stars
comments

Feeler Tab

   
-------------------------------------------------------------------------------
			       Pete Murray - Feeler
-------------------------------------------------------------------------------
Tabbed by: Brad Garnam

Tuning: Standard (EADGBe)

 I love this song it's so easy to play and sing along to,
  look up the lyrics and try it sometime.

 x = Dead Note

  (Guitar only)
e|----------------------------------|
B|----------------------------------|
G|----------------------------------|
D|--------5x--------7-xx7-7x-7-7xx--| X2  Intro
A|-5/7-7x-3x-5-7x---5-xx5-5x-5-5xx--|
E|-3/5-5x----3-5x-------------------|

  (Drums join)
e|----------------------------------|
B|----------------------------------|
G|----------------------------------|
D|--------5x--------7-xx7-7x-7-7xx--| X2  Intro
A|-5/7-7x-3x-5-7x---5-xx5-5x-5-5xx--|
E|-3/5-5x----3-5x-------------------|

  (Vocals Start)
e|----------------------------------|
B|----------------------------------|
G|----------------------------------|
D|--------5x--------7-xx7-7x-7-7xx--| X4  Verse
A|-5/7-7x-3x-5-7x---5-xx5-5x-5-5xx--|
E|-3/5-5x----3-5x-------------------|

   A               C                    F                    D
e|--------------------------------------------------------------------------|
B|--------------------------------------------------------------------------|
G|--------------------------------------------------------------------------|
D|--------------------------------------10--10x-10x-10-10xx--7--7x-7x-7-7xx-|  X2  Chorus
A|-7--7x-7x-7-7xx--10--10x-10x-10-10xx---8---8x--8x--8--8xx--5--5x-5x-5-5xx-|
E|-5--5x-5x-5-5xx---8---8x--8x--8--8xx--------------------------------------|

  (Guitar only)
e|----------------------------------|
B|----------------------------------|
G|----------------------------------|
D|--------5x--------7-xx7-7x-7-7xx--| X2  Intro
A|-5/7-7x-3x-5-7x---5-xx5-5x-5-5xx--|
E|-3/5-5x----3-5x-------------------|
[ Tab from: http://www.guitartabs.cc/tabs/p/pete_murray/feeler_tab_ver_2.html ]
  (Vocals Start)
e|----------------------------------|
B|----------------------------------|
G|----------------------------------|
D|--------5x--------7-xx7-7x-7-7xx--| X4  Verse
A|-5/7-7x-3x-5-7x---5-xx5-5x-5-5xx--|
E|-3/5-5x----3-5x-------------------|

   A               C                    F                    D
e|--------------------------------------------------------------------------|
B|--------------------------------------------------------------------------|
G|--------------------------------------------------------------------------|
D|--------------------------------------10--10x-10x-10-10xx--7--7x-7x-7-7xx-|  X2  Chorus
A|-7--7x-7x-7-7xx--10--10x-10x-10-10xx---8---8x--8x--8--8xx--5--5x-5x-5-5xx-|
E|-5--5x-5x-5-5xx---8---8x--8x--8--8xx--------------------------------------|


e|----------------------------------|
B|----------------------------------|
G|----------------------------------|
D|--------5x--------7-xx7-7x-7-7xx--| X2  Intro
A|-5/7-7x-3x-5-7x---5-xx5-5x-5-5xx--|
E|-3/5-5x----3-5x-------------------|

  (Keyboard starts, Guitar plays under)
e|----------------------------------|
B|----------------------------------|
G|----------------------------------|
D|--------5x--------7-xx7-7x-7-7xx--| X6  Bridge
A|-5/7-7x-3x-5-7x---5-xx5-5x-5-5xx--|
E|-3/5-5x----3-5x-------------------|


  Chorus with no guitar   X2

   A                C                    F                   D
e|--------------------------------------------------------------------------|
B|--------------------------------------------------------------------------|
G|--------------------------------------------------------------------------|
D|--------------------------------------10--10x-10x-10-10xx--7--7x-7x-7-7xx-|  X2  Chorus
A|-7--7x-7x-7-7xx--10--10x-10x-10-10xx---8---8x--8x--8--8xx--5--5x-5x-5-5xx-|
E|-5--5x-5x-5-5xx---8---8x--8x--8--8xx--------------------------------------|


  Outro, on electric guitar, i didn't figure this part out,
  but i think its just the chours chords strumed once in there
  root positions

  
  Any corections or complements to Brad Garnam   
  Email: Rustygiraffe@hotmail.com
Comments