Pete Murray - Feeler Chords & Tabs

 

Feeler Chords & Tabs

Pete Murray Chords & Tabs

Version: 1 Type: Tab 0 ratings
1 star 2 stars 3 stars 4 stars 5 stars
comments

Feeler Tab

   
Pete Murray

Feeler


Intro/verse

    G   A        C G     A  D 
e---3-/-5--x-x-x---3-3-/-5----x-x-x---x-------|
B---3-/-5--x-x-x-5-3-3-/-5--7-x-x-x-7-x-7-----|
G---4-/-6--x-x-x-5-4-4-/-6--7-x-x-x-7-x-7-----|
D---5-/-7--x-x-x-5-5-5-/-7--7-x-x-x-7-x-7-----|
A---5-/-7--x-x-x-3-5-5-/-7--5-x-x-x-5-x-5-----|
E---3-/-5--x-x-x---3-3-/-5----x-x-x---x-------|


Chorus
[ Tab from: http://www.guitartabs.cc/tabs/p/pete_murray/feeler_tab.html ]
     A                          C 
e----5--x-x-x--5-x-5-x-x-x-x-------x-x-x----x---x-x-x-x|
B----5--x-x-x--5-x-5-x-x-x-x----5--x-x-x--5-x-5-x-x-x-x|
G----6--x-x-x--6-x-6-x-x-x-x----5--x-x-x--5-x-5-x-x-x-x|
D----7--x-x-x--5-x-7-x-x-x-x----5--x-x-x--5-x-5-x-x-x-x|
A----7--x-x-x--5-x-7-x-x-x-x----3--x-x-x--3-x-3-x-x-x-x|
E----5--x-x-x--5-x-5-x-x-x-x-------x-x-x----x---x-x-x-x|

     F                          D
e----1--x-x-x--1-x-1-x-x-x-x-------x-x-x----x---x-x-x-x|
B----1--x-x-x--1-x-1-x-x-x-x----7--x-x-x--7-x-7-x-x-x-x|
G----2--x-x-x--2-x-2-x-x-x-x----7--x-x-x--7-x-7-x-x-x-x|
D----3--x-x-x--3-x-3-x-x-x-x----7--x-x-x--7-x-7-x-x-x-x|
A----3--x-x-x--3-x-3-x-x-x-x----5--x-x-x--5-x-5-x-x-x-x|
E----1--x-x-x--1-x-1-x-x-x-x-------x-x-x----x---x-x-x-x|
Comments