Pete Murray - Better Days Chords & Tabs

 

Better Days Chords & Tabs

Pete Murray Chords & Tabs

Version: 1 Type: Tab

Better Days Tab

   
Song: Better Days
Artist: Pete Murray
Standard tuning, Capo 1

Verses
    F                       C        Em         Am               
e---x--x---x---x-x--x--|----0----|----0----|----x----x---x-x-x---|
B---1--1---1---1-1--1--|----1----|----0----|----1----1---1-1-1---|
G---2--0---0--0h2--0--|----0----|----0----|----2----0---2-2-0---|
D---3--3---3---3-3--3--|----2----|----2----|----2----0---2-2-0---|
A---3--3---3---3-3--3--|----3----|----2----|----0----0---0-0-0---|
E---x--x---x---x-x--x--|----3----|----0----|----x----x---x-x-----|
[ Tab from: http://www.guitartabs.cc/tabs/p/pete_murray/better_days_tab.html ]
   F                       C        Em         Am
e----x--x---x---x-x--x--|----0----|----0----|----x----|
B----1--1---1---1-1--1--|----1----|----0----|----1----|
G----2--0---0--0h2--0--|----0----|----0----|----2----|	
D----3--3---3---3-3--3--|----2----|----2----|----2----|
A----3--3---3---3-3--3--|----3----|----2----|----0----|
E----x--x---x---x-x--x--|----3----|----0----|----x----|

Chorus
     C   Em       Am       F
e----0---0----|----0---0---x----|
B----1---0----|----1---1---1----|
G----0---0----|----2--0---2----|  Play this six times
D----2---2----|----2---0---3----|
A----3---2----|----0---0---3----|
E----3---0----|----x---x---x----|

F                   
e---x--x---x---x-x--x--|
B---1--1---1---1-1--1--|
G---2--0---0--0h2--0--|    Play this after the sixth bar
D---3--3---3---3-3--3--|
A---3--3---3---3-3--3--|
E---x--x---x---x-x--x--|