Pete Murray - Bail Me Out Chords & Tabs

 

Bail Me Out Chords & Tabs

Pete Murray Chords & Tabs

Version: 3 Type: Tab 0 ratings
1 star 2 stars 3 stars 4 stars 5 stars
comments

Bail Me Out Tab

Artist: Pete Murray
Song: Bail Me Out
Tabbed By: Kris Bahoudian

Hey, This song is probably one of my favourite Pete Murray songs so naturally
i wanted to find a tab for it but after looking hard i realised that all of the
tabs were wrong and espically not using a "CAPO". After watchin the Bail me out
vidio i attempted to tab it and i am 99.9% this is exactly what Pete Plays in
the video after watching it about 1000friken times. Hope you enjoy its a easy
song. PETE MURRAY ROCKS!!

Capo On Second Fret, All Chords Relative To Capo

intro
E|------------------------------------------|Use strumming rythm 
B|--1----1---3------------------------------|
G|--2----0---0------------------------------|
D|--2----2---4------------------------------|X4
A|-------3---5------------------------------|
E|------------------------------------------|

Verse (Same as Intro)
   Two weeks       From reality                I Was           To Feel
E|---------------------------------------------------------------|
B|--1-------------------------1--------------------------3-------|
G|--2-------------------------0--------------------------0-------|
D|--2-------------------------2--------------------------4-------|X4
A|----------------------------3--------------------------5-------|
E|---------------------------------------------------------------|
[ Tab from: http://www.guitartabs.cc/tabs/p/pete_murray/bail_me_out_tab_ver_3.html ]
Pre- Chorus
E|-------------------------------------------|"She could set me free....
B|------1---3-----1------3-------------------|
G|------0---0-----0------0-------------------|
D|------2---4-----2------4-------------------|X2 on last strum pull off
A|------3---5-----3------5-------------------|
E|-------------------------------------------|
  
Chorus
E|-------------------------------------------|
B|--1----1---3----1--------------------------|"Oh here we go again ...
G|--2----0---0----0--------------------------|
D|--2----2---4----2--------------------------|
A|-------3---5----3--------------------------|
E|-------------------------------------------|

Thats basically it. The verse's are exactly the same and the chorou'ses use a
similar chord progrssion like the verse and intro, hope u enjoy!! PETE MURRAY
ROCKS!!

muso__bum@hotmail.com/ Kris Bahoudian
:-) cheers!!

Two weeks away from reality
And I was beginning to feel,
I couldn't be myself,
I feel like a fly caught in honey,
Knowing that soon
Somebody was going to see me
Knowing that I probably going to die

Oh here we go again I'm so spent
My head is spinning
Oh can you bail me out of this rut
I've got myself in once again

From the nightmares and my dreams
I was beginning to feel,

I couldn't be myself
She was a little girl,
She knew all about my world
She was the legend on my dreams
She could set me free

Oh here we go again I'm so spent
My head is spinning
Oh can you bail me out of this rut
I've got myself in once again

Oh here we go again I'm so spent
My head is spinning
Oh can you bail me out of this rut
I've got myself in once again
Comments