Pet Shop Boys - New York City Chords & Tabs

 

New York City Chords & Tabs

Pet Shop Boys Chords & Tabs

Version: 1 Type: Tab 0 ratings
1 star 2 stars 3 stars 4 stars 5 stars
comments

New York City Tab

   
                      PetShopBoys-New York City

Intro:
|--------------------------------|--------------------------------|
|10--6---3-----------------------|8---5---8---1513----11--10--8---|
|------------3-2-----0---2---3---|--------------------------------|
|--------------------------------|--------------------------------|
|--------------------------------|--------------------------------|
|--------------------------------|--------------------------------|
[ Tab from: http://www.guitartabs.cc/tabs/p/pet_shop_boys/new_york_city_tab.html ]
|--------------------------------|3---1---3-----------------------|
|--------22--1817----1-----------|--------------3-----------------|
|-----------------------2--------|0-------0---2-------------------|
|---------------------------2----|---3----------------------------|
|--------------------------------|--------------------------------|
|--------------------------------|--------------------------------|

Verses:

 Bb    C    Am  Dm
|1-----0----0----1---|
|3-----1----1----3---|
|3-----0----2----2---|
|--------------------|
|1----------0----0---|
|------3-------------|


TabsMail...
http://tabsmail.8m.com
!Exclusive-TabsMail!

Comments