Perry Dan - When Johnny Comes Marching Home Chords & Tabs

 

When Johnny Comes Marching Home Chords & Tabs

Perry Dan Chords & Tabs

Version: 1 Type: Tab 0 ratings
1 star 2 stars 3 stars 4 stars 5 stars
comments

When Johnny Comes Marching Home Tab

   
When Johnny comes marching home


1------------------------------------------------------------
2------------------------------------------------------------
3--------------------0------0--------------------------------
4-----2--2--2--2--4------4-----2--0-------0------------------
5--2----------------------------------2----------------------
6------------------------------------------------------------
When Johnny comes marching home again      hurrah, hurrah!

1------------------------------------------------------------
2------------------------------------------------------------
3--------------------0------0----2---4---0--4----------------
4-----2--2--2--2--4------4-----------------------------------
5--2---------------------------------------------------------
6------------------------------------------------------------
We’ll give him a hearty welcome then       hurrah, hurrah!

1------------------------------------------------------------
2------------------------------------------------------------
3--0---4--4--4--0---2---2--2---------------------------------
4------------------------------4--5--5--5--4---2--4----------
5----------------------------------------------------2-2-----
6------------------------------------------------------------
The men will cheer, the boys will shout, and the ladies they will all turn out
[ Tab from: http://www.guitartabs.cc/tabs/p/perry_dan/when_johnny_comes_marching_home_tab.html ]
1------------------------------------------------------------
2------------------------------------------------------------
3-0--2--4---2---0--------------------------------------------
4------------------4---2--2-2-2--0--2------------------------
5------------------------------------------------------------
6------------------------------------------------------------
And we’ll all be gay when Johnny comes marching home


Em                                         G
When Johnny comes marching home again      hurrah, hurrah!
Em                                         G       D
We’ll give him a hearty welcome then       hurrah, hurrah!
    G                   D                        C                B7
The men will cheer, the boys will shout, and the ladies they will all turn out
          G   D  C   B7  Em                                   Em  Em Em Em
And we’ll all be gay when ..……Johnny comes marching home     (strum to drum beat)


The old church bell will peel with joy	    hurrah, hurrah!
To welcome home our darling boy                   hurrah, hurrah!
The village lads and lassies say
With roses they will strew the way
And we’ll all be gay when Johnny comes marching home

Get ready for the jubilee                                 hurrah, hurrah!
We’ll give the hero three times three	            hurrah, hurrah!
The laurel wreath is ready now
To place upon his loyal brow
And we’ll all be gay when Johnny comes marching home

Let love and friendship on that day                   hurrah, hurrah!
Their choicest treasures then display                 hurrah, hurrah!
And let each of us perform some part
To fill with joy the warriors heart
And we’ll all be gay when Johnny comes marching home
Comments