Perfect Circle - Wake The Dead Chords & Tabs

 

Wake The Dead Chords & Tabs

Perfect Circle Chords & Tabs

Version: 1 Type: Tab 0 ratings
1 star 2 stars 3 stars 4 stars 5 stars
comments

Wake The Dead Tab

#----------------------------------PLEASE NOTE--------------------------------#
#This file is the author's own work and represents their interpretation of the#
#song. You may only use this file for private study, scholarship, or research.#
#-----------------------------------------------------------------------------#
#-- File created with Instab - http://www.pconline.com/~smcarey/instab.html --#
#-----------------------------------------------------------------------------#

Author/Artist: A perfect Circle
Title: Wake the dead
Album: ???
Transcribed by: Wang Jen Yu
Email: tusoldier@hotmail.com

I'm not entirely sure that this is perfect circle but personally, 
i enjoy this song very much! I hope u enjoy it as well!
Please e-mail me, for any corrections.






                               Wake the Dead



                                                                 Play 6 times
-|--------7-----5h7p5---------------------7-------5---------------------------
-|8-------------------7-8---------8-----------------7-8-----------------------
-|---0------0--------------0---------0------0---------------------------------
-|----------------------------------------------------------------------------
-|10---10-----10-------------10---10---10-----10------------------------------
-|----------------------------------------------------------------------------
                                                                              


                                                                 Play 4 times
-|----0-------------0-------------2-----3-----0-------------------------------
-|8-----8-------7-----7-------5-----5-----5-----5-----------------------------
-|--0-----0-------0-----0-------0-----0-----0-----0---------------------------
-|----------------------------------------------------------------------------
-|7-------------5-------------3-----------------------------------------------
-|----------------------------------------------------------------------------
                                                                              
                                                                 
-|----0-------------0-------------2-----0-----0-------------------------------
-|8-----8-------7-----7-------5-----5-----5-----5-----------------------------
-|--0-----0-------0-----0-------0-----0-----0-----0---------------------------
-|----------------------------------------------------------------------------
-|7-------------5-------------3-----------------------------------------------
-|----------------------------------------------------------------------------
                                                                              



                                                                 Play 4 times
-|----2-----------2-----------3--2--3--2--3p2---------------------------------
-|3-----3-----3-----3-----3------3--3--3--3-----------------------------------
-|--0-----0-----0-----0-----0-------------------------------------------------
-|----------------------------------------------------------------------------
-|2-----------2-----------3---------------------------------------------------
-|------------------------------------------------------------------------0---
                                                                              
 


                                                                 Play 2 times
-|------0--------------0--------------0--------------0------------------------
-|0-------0------0-------0------0-------0------0-------0----------------------
-|--8-------8------8-------8------8-------8------8-------8--------------------
-|----9--------------9--------------9--------------9--------------------------
-|----------------------------------------------------------------------------
-|0--------------0--------------0--------------0------------------------------
                                                                              


[ Tab from: http://www.guitartabs.cc/tabs/p/perfect_circle/wake_the_dead_tab.html ]
                                                                 Play 3 times
-|------0--------------0----------------------------5-------------------------
-|0-------0------0-------0-----0------0-------0-------0-----------------------
-|--5-------5------5-------5-----0------0-------0-------0---------------------
-|----7--------------7-------------4------4-------4---------------------------
-|0--------------0------------------------------------------------------------
-|-----------------------------0--------------0-------------------------------
                                                                              
                                                                 Play 1 time
-|------0--------------0--------------0-------------0-------------------------
-|0-------0------0-------0-----0--------0-----0-------0-----------------------
-|--5-------5------5-------5-----0--------0-----0-------0---------------------
-|----7--------------7-------------4--------------4---------------------------
-|0--------------0------------------------------------------------------------
-|-----------------------------0--------------0-------------------------------
                                                                              



                                                                 Play 4 times
-|----0-------------0-------------2-----3-----0-------------------------------
-|8-----8-------7-----7-------5-----5-----5-----5-----------------------------
-|--0-----0-------0-----0-------0-----0-----0-----0---------------------------
-|----------------------------------------------------------------------------
-|7-------------5-------------3-----------------------------------------------
-|----------------------------------------------------------------------------
                                                                              

-|----0-------------0-------------2-----0-----0-------------------------------
-|8-----8-------7-----7-------5-----5-----5-----5-----------------------------
-|--0-----0-------0-----0-------0-----0-----0-----0---------------------------
-|----------------------------------------------------------------------------
-|7-------------5-------------3-----------------------------------------------
-|----------------------------------------------------------------------------
                                                                              



                                                                 Play 6 times                               
-|----2-----------2-----------3--2--3--2--3p2---------------------------------
-|3-----3-----3-----3-----3------3--3--3--3-----------------------------------
-|--0-----0-----0-----0-----0-------------------------------------------------
-|----------------------------------------------------------------------------
-|2-----------2-----------3---------------------------------------------------
-|------------------------------------------------------------------------0---
                                                                              



                                                                 Play 2 times
-|------0--------------0--------------0--------------0------------------------
-|0-------0------0-------0------0-------0------0-------0----------------------
-|--8-------8------8-------8------8-------8------8-------8--------------------
-|----9--------------9--------------9--------------9--------------------------
-|----------------------------------------------------------------------------
-|0--------------0--------------0--------------0------------------------------
                                                                              

     

 
                                                                 Play 1 time
-|------0--------------0----------------------------5-------------------------
-|0-------0------0-------0-----0------0-------0-------0-----------------------
-|--5-------5------5-------5-----0------0-------0-------0---------------------
-|----7--------------7-------------4------4-------4---------------------------
-|0--------------0------------------------------------------------------------
-|-----------------------------0--------------0-------------------------------
                                                                              




                                                                Play 5 times
-|------0--------------0-------------0--------------0-------------------------
-|0-------0------0-------0-----0-------0------0-------0-----------------------
-|--5-------5------5-------5-----0-------0------0-------0---------------------
-|----7--------------7-------------4--------------4---------------------------
-|0--------------0------------------------------------------------------------
-|-----------------------------0--------------0-------------------------------
                                                                              




  Slow Down.......
-|------0--------------0------------------------------------------------------
-|0-------0------0-------0-----0----------------------------------------------
-|--0-------0------0-------0--------------------------------------------------
-|----4--------------4--------------------------------------------------------
-|----------------------------------------------------------------------------
-|0--------------0-------------0----------------------------------------------
                                                                              

Comments