Perfect Circle - Judith Chords & Tabs

 

Judith Chords & Tabs

Perfect Circle Chords & Tabs

Version: 1 Type: Bass Tab 0 ratings
1 star 2 stars 3 stars 4 stars 5 stars
comments

Judith Bass Tab

Song: Judith
Artist: A Perfect Circle
Album: Mer de Noms

       tabbed by Helmet 

   1 1/2 Steps Down to C#

	Intro/Verse/Main riff
             bar 1                                      bar 2
E-|----------------------------------------|---------------------------|
B-|----------------------------------------|---------------------------|
F#|--5-h-7--7--7------5-h-7--7b(8)--5-h-7--|---5-h-7--7--7--7----------|
C#|---------------7------------------------|-------------------3-p-0---|


    	Chorus Bar 2 variation 1                    variation 2
E-|-----------------------------------|--------------------------------|
B-|-----------------------------------|--------------------------------|
F#|--5-h-7---7--7--7--7---10--10--10--|---5-h-7---7--7--7--7-----------|
C#|-----------------------------------|-----------------------2--p--0--|
[ Tab from: http://www.guitartabs.cc/tabs/p/perfect_circle/judith_btab.html ]
	Chorus Riff 2
E-|-------------------------------|------------------------------------|
B-|*------------------------------|-----------------------------------*|
F#|*------------------------------|-----------------------------------*|
C#|--8---8--8-8-8-8--8----8----8--|---5---5--5-5-5-5--5----5----5-/8---|

E-|--------------------------------------|---------------------------|
B-|--------------------------------------|---------------------------|
F#|--------------------------------------|---------------------------|
C#|---8---8--8-8-8-8--8/10--10--10--10---|--3---3--3--3--2---2---2---|

	
	Chorus Riff 3/Verse 2
E |------------------------------------------|
B |------------------------------------------|
F#|---5-h-7-p-5-----5------------------------|
C#|--------------7-----7---0---0----0----0---|

	Outro Riff
E |--------------------|--------------------|
B |*-------------------|-------------------*|
F#|*--5-h-7--7--7------|---5-h-7--7--7-----*|
C#|----------------0---|----------------0---|



	Well, this the "notes" part that you'll cut off when you save this a
rearrange it to make it simpler for you to understand.  With the riff
changed so hidden under the guitars, and shouts, you'll need to listen
for the timing, but I won't take long to figure out.  It's easy once you
get the timing right, the same with anything.

        If there's any questions, comments, etc... send them to
metalliduck62@hotmail.com.

Comments