Perfect Circle - Hollow Chords & Tabs

 

Hollow Chords & Tabs

Perfect Circle Chords & Tabs

Version: 1 Type: Tab 0 ratings
1 star 2 stars 3 stars 4 stars 5 stars
comments

Hollow Tab

   
Artist- A Perfect Circle 
Song- The Hollow 
Tab- By Jonathan Bissonnette 

Tuning- Db Ab Db Gb Bb Eb 

Intro 

Gtr.1 

|-----------------------------------| 
|-----------------------------------| 
|-----------------------------------| 
|-9-9-9-9/7-7-7-7--0-0-0-0-0h2-2p0/-| 
|-9-9-9-9/7-7-7-7--0-0-0-0-0h2-2p0/-| 
|-9-9-9-9/7-7-7-7--0-0-0-0-0h2-2p0/-| 

Gtr.2 

|-------------------------------------------| 
|-------------------------------------------| 
|-11-11-11-11-11/14-14-14-14-14-14-14-14-14-| 
|--x--x--x--x--x--x--x--x--x--x--x--x--x--x-| 
|--9--9--9--9--9/12-12-12-12-12-12-12-12-12-| 
|-------------------------------------------| 

|------------------------------------------| 
|------------------------------------------| 
|-11-11-11-11-11-11-11-11-11-11/7-7-7-7-7--| 
|--x--x--x--x--x--x--x--x--x--x-x-x-x-x-x--| 
|--9--9--9--9--9--9--9--9--9--9/5-5-5-5-5--| 
|------------------------------------------| 

|-------------------------------------------| 
|-------------------------------------------| 
|-11-11-11-11-11/14-14-14-14-14-16-16-14-14-| 
|--x--x--x--x--x--x--x--x--x--x--x--x--x--x-| 
|--9--9--9--9--9/12-12-12-12-12/14-14/12-12-| 
|-------------------------------------------| 

|-------------------------------------------| 
|-------------------------------------------| 
|-11-11-11-11-11-11-11-11-11-11-11-11-11-11-| 
|--x--x--x--x--x--x--x--x--x--x--x--x--x--x-| 
|--9--9--9--9--9--9--9--9--9--9--9--9--9--9-| 
|-------------------------------------------| 

Verse 

| 
|--------------17/15-| 
|---------14---------| 
|-9-9--12------------| 
|-9-9----------------| 
|-9-9----------------| 

*They use some sort of pedal 

Chorus 

Gtr.1 

|---------------------------------| 
|---------------------------------| 
|---------------------------------| 
|-5-5-5-5-4-4-4-4-0-0-0-0-0-0-0-0-| 
|-5-5-5-5-4-4-4-4-0-0-0-0-0-0-0-0-| 
|-5-5-5-5-4-4-4-4-0-0-0-0-0-0-0-0-| 

|--------------------------------------------------------| 
|----17p15/14h15p14/12/10--------------------------------| 
|-14---------------------------11~----14----14-14/12-12--| 
|-------------------------12-11----12----12--------------| 
|--------------------------------------------------------| 
|--------------------------------------------------------| 
digital delay, this whole part is delayed 

*He does other stuff, I can't pick it out 

Verse 2 

Gtr.1 
[ Tab from: http://www.guitartabs.cc/tabs/p/perfect_circle/hollow_tab.html ]
|-----------------------------------| 
|-----------------------------------| 
|-----------------------------------| 
|-9-9-9-9-7-7-7-7-0-0-0-0-0h2-2p0-0-| 
|-9-9-9-9-7-7-7-7-0-0-0-0-0h2-2p0-0-| 
|-9-9-9-9-7-7-7-7-0-0-0-0-0h2-2p0-0-| 
                     p.m...... 
Gtr.2 

|-------------------| 
|-------------17/15-| 
|---------14--------| 
|-9-9--12-----------| 
|-9-9---------------| 
|-9-9---------------| 

Interlude 

Gtr.1 

|---------------------------------------------| 
|---------------------------------------------| 
|---------------------------------------------| 
|-0---------------------0-0/7-7-7/2-2-2-2-4---| 
|-0--9/11-11-11/9-9-9-9-0-0/x-x-x-x-x-x-x-x---| 
|-0---------------------0-0/7-7-7/2-2-2-2/4-0-| 

Gtr.2 

|-----------------------------------------------------------------| 
|-------101010101010/1111111111/14-14-14-14-14-14-14-14-14-14-14/-| 
|--------x-x-x-x-x-x-x-x-x-x-x---x--x--x--x--x--x--x--x--x--x--x--| 
|--7-7-7-7-7-7-7-7-7/9-9-9-9-9/-11-11-11-11-11-11-11-11-11-11-11/-| 
|-----------------------------------------------------------------| 
|-----------------------------------------------------------------| 

|----------------------------------------| 
|17-17-17-17-17-17-17-17-17/18/111111111-| 
|-x--x--x--x--x--x--x--x--x--x/x-x-x-x-x-| 
|14-14-14-14-14-14-14-14-14/16/9-9-9-9-9-| 
|----------------------------------------| 
|----------------------------------------| 

Chorus 2 

|-----------------------------------| 
|-----------------------------------| 
|-----------------------------------| 
|-9-9-9-9-7-7-7-7-2-2-2-2-0-0-0-0-0-| 
|-9-9-9-9-7-7-7-7-2-2-2-2-0-0-0-0-0-| 
|-9-9-9-9-7-7-7-7-2-2-2-2-0-0-0-0-0-| 

Bridge 

Gtr.1 

|--------------------------------------------------------| 
|--------------------------------------------------------| 
|--------------------------------------------------------| 
|-9-9-9-9-9-9/11-11-11-11-11-11/12-12-12-12-12-12--5-5-5-| 
|-9-9-9-9-9-9/11-11-11-11-11-11/12-12-12-12-12-12--5-5-5-| 
|-9-9-9-9-9-9/11-11-11-11-11-11/12-12-12-12-12-12--5-5-5-| 
p.m........ p.m.............. p.m.............. 

Gtr.2 

|-------------------------------------------------------| 
|-------------------------------------------------------| 
|16-16-16/14-14/9-9-9-9/111111111/7-7-7/9/6-6-6/(7)/(4)-| 
|-x--x--x--x--x-x-x-x-x-x-x-x-x-x-x-x-x-x-x-x-x--x---x--| 
|14-14-14/12-12/7-7-7-7/9-9-9-9-9/5-5-5/7/4-4-4/(5)/(2)-| 
|-------------------------------------------------------| 

Chorus 3/Outro 

Gtr.1 

|---------------------------------| 
|---------------------------------| 
|---------------------------------| 
|-5-5-5-5-4-4-4-4-0-0-0-0-0-0-0-0-| 
|-5-5-5-5-4-4-4-4-0-0-0-0-0-0-0-0-| 
|-5-5-5-5-4-4-4-4-0-0-0-0-0-0-0-0-| 

Gtr.2- Same delayed effects as first Chorus 
Comments