Perfect Circle - 3 Libras Chords & Tabs

 

3 Libras Chords & Tabs

Perfect Circle Chords & Tabs

Version: 2 Type: Tab 1 rating
1 star 2 stars 3 stars 4 stars 5 stars
comments

3 Libras Tab

   
Artist: A Perfect Circle
Song: 3 Libras
From the Album: "Mer de Noms"
Tabbed by Dan O.

I think this is pretty accurate, except I haven't figured out the last part of the song. Listen to the song for the timing, it's pretty easy once you get the hang of it.

Standard tuning (EADGBe)
(Fingerpick the intro and verses.)

INTRO: 
e---------------------------------------------------------
B-0-----0-0-----0-0-----0-4-----4-0-----0-0-----0-7-----7-
G---------------------------------------------------------
D---2-------2-------2-------6-------2-------2-------9-----
A-0---0---0---0---0---0---4---4---0---0---0---0---7---7---
E---------------------------------------------------------


e---------------------------------------------------------
B-4-----4-0-----0-0-----0-0-----0-4-----4-0-----0-0-----0-
G---------------------------------------------------------
D---6-------2-------2-------2-------6-------2-------2-----
A-4---4---0---0---0---0---0---0---4---4---0---0---0---0---
E---------------------------------------------------------


e---------------------------------------------------------
B-7-----7-4-----4-5-----5-5-----5-5-----5-5---------------
G---------------------------------------------------------
D---9-------6-------7-------7-------7-----7---------------
A-7---7---4---4---5---5---5---5---5---5---5---------------
E---------------------------------------------------------

VERSE:
 "Threw..." 
e---------------------------------
B-0-----0-0-----0-2-----4-3-----3-
G---------------------------------
D---2-------2-------4-------5-----
A-0---0---0---0---2---2---3---3---
E--------------------------------- REPEAT 4x 

Then play:
         "Difficult..."
e---------------------------------------------------------
B-4-----4-0-----0-0-----0-0-----0-7-----7-4-----4-4-----4-
G---------------------------------------------------------
D---6-------2-------2-------2-------9-------6-------6-----
A-4---4---0---0---0---0---0---0---7---7---4---4---4---4---
E---------------------------------------------------------

[ Tab from: http://www.guitartabs.cc/tabs/p/perfect_circle/3_libras_tab_ver_2.html ]
e---------------------------------------------------------
B-4-----4-4-----4-0-----0-0-----0-0-----0-7-----7-4-----4-
G---------------------------------------------------------
D---6-------6-------2-------2-------2-------9-------6-----
A-4---4---4---4---0---0---0---0---0---0---7---7---4---4---
E---------------------------------------------------------


e------------------- Play same for 2nd verse except
B-4-----4-5-----5-2- leave out the last: B-2
G-------------------                     G--
D---6-------7-----4-                     D-4
A-4---4---5---5---2-                     A-2
E-------------------                     E--

CHORUS: (Note: This basically just shows the chords and the order in           which they are played, not the exact strumming pattern. I 
         think these are the right chords, but I could be wrong.)
 "Cuz I threw..."
e-------------------
B-------------------
G-9-9-9-9-5-5/10-10-
D-9-9-9-9-5-5/10-10-
A-7-7-7-7-3-3/8--8--
E-------------------REPEAT 4x

Then play:
e-----------------------------------------------------------------
B-0-----0-0-----0-0-----0-4-----4-0-----0-0-----0-7-----7-4-----4-
G-----------------------------------------------------------------
D---2-------2-------2-------6-------2-------2-------9-------6-----
A-0---0---0---0---0---0---4---4---0---0---0---0---7---7---4---4---
E-----------------------------------------------------------------


e-----------------------------------------------------------------
B-0-----0-0-----0-0-----0-4-----4-0-----0-0-----0-7-----7-4-----4-
G-----------------------------------------------------------------
D---2-------2-------2-------6-------2-------2-------9-------6-----
A-0---0---0---0---0---0---4---4---0---0---0---0---7---7---4---4---
E-----------------------------------------------------------------

e-------------------------
B-5-----5-5-----5-5-----5-
G-------------------------
D---7-------7-------7-----
A-5---5---5---5---5---5---
E-------------------------

I haven't figured out the distortion part at the end, but if anyone figures it out email me at: Dodi4196@aol.com. (Just to let you know when I tabbed this using notepad everything lines up right, but it might get messed up when it gets posted, because the font size might change. The intro and verses are basically barre chord progressions, so they should look like that, if they dont I'll try to fix it when I get a chance.)
Comments