Perfect Circle - 3 Libras Chords & Tabs

 

3 Libras Chords & Tabs

Perfect Circle Chords & Tabs

Version: 1 Type: Tab 0 ratings
1 star 2 stars 3 stars 4 stars 5 stars
comments

3 Libras Tab

Title: 3 Libras
Artist: A Perfect Circle
Album: Mer de Noms
Transcribed by: Travis Weisenborn = wizard_wise@hotmail.com

This is my transcription of A Perfect Circle's song "3 Libras. Its a 
great song, but hard to figure out! I have listed some figures you need
to pick to play the song. This isn't the absolute complete version
of the song, but it's enough to get you on your way... Just fiddle around
with these formations i have listed, and listen to the cd to get the
real feel for the song. 

(#1)
This is the start of the song.. it goes on..
E-----------------------------
B--------0---0----------------
G------4-------4--------------
D----2-----2------------------
A--0--------------------------
E-----------------------------

Then, switch to this formation and pick for awhile..
(#2)
E----------------------------
B--------4---4---------------
G------8-------8-------------
D----6-----6-----------------
A--4-------------------------
E----------------------------
[ Tab from: http://www.guitartabs.cc/tabs/p/perfect_circle/3_libras_tab.html ]
Now, switch to this formation..
(#3)
E----------------------------
B---------7---7--------------
G------11-------11-----------
D----9------9----------------
A--7-------------------------
E----------------------------

Now, figure (#4)

E---------------------------
B--------5---5--------------
G------9-------9------------
D----7-----7----------------
A--5------------------------
E---------------------------

Then back to figure #1
Just repeat these fingerings as many times as you need... you know how it 
goes...

For the chorus, u can strum these chords

[x]  [x]  [x]
[x]  [x]  [x]
[9]  [5]  [7]
[9]  [5]  [7]
[7]  [3]  [5]
[x]  [x]  [x]

Thats pretty much the whole song. Just listen closely to the changes
in the song. You'll develope your own style with it. But this should be 
enough to get you started. If anyone has any questions, suggestions,
complaints, anything, just email me. This is my own transcription, and
only I reserve the right to it. Peace and keep on jammin'.
Comments