Pennywise - Yesterdays Chords & Tabs

 

Yesterdays Chords & Tabs

Pennywise Chords & Tabs

Version: 2 Type: Tab 0 ratings
1 star 2 stars 3 stars 4 stars 5 stars
comments

Yesterdays Tab

   
-------------------------------------------------------------------------------
			     Yesterdays - Pennywise
-------------------------------------------------------------------------------
Tabbed by:Alex Rivera
Email:alexrivera_88@hotmail.com

Tuning:E B G D A E
       v o e u t a
       e d t m   s
       r y s p   t
       y     E   E
             D   r   


inro:guitar 1
   E5       C5       G5       F#/D?
e|---------------------------------------------------------------------------
B|---------------------------------------------------------------------------
G|----------5-555555---------------------------------------------------------
D|-2-222222-5-555555-5-555555------------------------------------------------
A|-2-222222-3-333333-5-555555-5-555555---------------------------------------
E|-0-000000----------3-333333-2-222222-reapeat 4 times-----------------------

intro:guitar 2

e|---------------------------------------------------------------------------
B|-8--7--8--10--8-10-12-12/13-12--10--8--10----------------------------------
G|---------------------------------------------------------------------------
D|---------------------------------------------------------------------------
A|---------------------------------------------------------------------------
E|-------------------------------------------reapeat 4 times-----------------

  verse 
  palm mute
e|---------------------------------------------------------------------------
B|-8-(guitar 2)--------------------------------------------------------------
G|---------------------------------------------------------------------------
D|---------55555555----------------------------------------------------------
A|-22222222333333335555555555555555------------------------------------------
E|-00000000--------3333333322222222--reapeat 2 times ------------------------
[ Tab from: http://www.guitartabs.cc/tabs/p/pennywise/yesterdays_tab_ver_2.html ]
  NOT palm muted
e|---------------------------------------------------------------------------
B|---------------------------------------------------------------------------
G|----------5-555555---------------------------------------------------------
D|-2-222222-5-555555-5-555555------------------------------------------------
A|-2-222222-3-333333-5-555555-5-555555---------------------------------------
E|-0-000000----------3-333333-2-222222-reapeat 2 times-----------------------

  Chorus

e|---------------------------------------------------------------------------
B|---------------------------------------------------------------------------
G|-99999999999-55555555555-------------77777777777778------------------------
D|-99999999999-55555555555-55555555555-77777777777778------------------------
A|-77777777777-33333333333-55555555555-55555555555556------------------------
E|-------------------------33333333333-----------------reapeat 2 times-------

  Go back to intro,verse,and chorus


  interlude
  guitar 1
e|---------------------------------------------------------------------------
B|---------------------------------------------------------------------------
G|------------(guitar 2 does some wierd noisy stuff)-------------------------
D|-2-------------------------------------------------------------------------
A|-2----------------------------------------------555555555555555------------
E|-0-let ring-------------------------------------333333333333333-pick slide-
                                                  ***************(palm mute)
  go back to chorus and the outro is just like the intro
     
   End on this chord                                 
e|---------------------------------------------------------------------------
B|-8-(guitar 2)--------------------------------------------------------------
G|---------------------------------------------------------------------------
D|-2-------------------------------------------------------------------------
A|-2-------------------------------------------------------------------------
E|-0-----fade out with some feed back----------------------------------------
Comments