Pennywise - What If I Chords & Tabs

 

What If I Chords & Tabs

Pennywise Chords & Tabs

Version: 2 Type: Bass Tab 0 ratings
1 star 2 stars 3 stars 4 stars 5 stars
comments

What If I Bass Tab

---------------------------------------------------------------------------
                          WHAT IF I - Pennywise
---------------------------------------------------------------------------

by: squirrel420 (squirrel420@dekscussion.com)
I just took the guitar tab and made some changes for the bass. 
if its wrong, its cause i have a shitty ear. email me if you find a 
mistake.

INTRO/BRIDGE                                
* = Play 10 times
G-|---------------------------------|------------|
D-|---------------------------------|------------|
A-|-99999999-1010101010101010--(x3)-|3(slide)13*-|
E-|---------------------------------|------------|
[ Tab from: http://www.guitartabs.cc/tabs/p/pennywise/what_if_i_btab_ver_2.html ]
VERSE 
Part I.
G-|-------------------------------------------------------------|
D-|-------------------------------------------------------------|
A-|---7---3-555-77-5---7---3-555-77-5---7---3-555-77-5-99998765-|
E-|-77--33-----------77--33-----------77--33--------------------|

(only played at end of intro)
G-|-------------------------------|
D-|-------------------------------|
A-|-7--------797---------34565643-|
E-|--7777777-----7777777----------|

Part II. (x2)
G-|------------------------------------------------|
D-|---------------------5---------7----------------|
A-|-7---------3-----------5555555---77777-34565643-|
E-|---7777777---3333333----------------------------|
Play Part I. again.

   CHORUS (x2)
G-|-----------------------------------------|
D-|------5555------7777-------5555-77777777-|
A-|-7777------3333-------7777---------------|
E-|-----------------------------------------|

If you're too damned lazy to figure the structure out, here it is:

Intro
Verse
Chorus
Verse
Chorus
Verse (Just Part I)
Bridge
Verse(Part I x2)

Just corrected some small structure problems out. - squirrel420
==========================================================================
Comments