Pennywise - Waiting Chords & Tabs

 

Waiting Chords & Tabs

Pennywise Chords & Tabs

Version: 3 Type: Tab 0 ratings
1 star 2 stars 3 stars 4 stars 5 stars
comments

Waiting Tab

SONG:WAITING
ARTIST:PENNYWISE

TABBER: VITOR ZERVELIS
ANY QUESTIONS: alucardrato@yahoo.com.br

This is the real solo of "waiting" i saw fletcher doing in a video....
[ Tab from: http://www.guitartabs.cc/tabs/p/pennywise/waiting_tab_ver_3.html ]
|--------------------------------------------------|
|-----------------------------19-------------------|
|----11-16-19-16--------14-19----19----------------|
|-9-----------------12--------16-------------------|
|-9--9--14-17-14----12--12-17----17----------------|
|-7-----------------10-----------------------------|

|-------------------------------------|-----------------|      x2
|-------------------------------------|-----------------|
|----14/16-16-19-16-------14-16-14-12-|-----14-16-14-12-|
|-7--------------------5--------------|--5--------------|
|-7--12/14-14-17-14----5--12-14-12-10-|--5--12-14-12-10-|
|-5--------------------3--------------|--3--------------|
					    2 time only





RATE THIS TAB...

LOVE PENNYWISE...

VIVA OS BRASILEIROS.............................
Comments