Pennywise - Victim Of Reality Chords & Tabs

 

Victim Of Reality Chords & Tabs

Pennywise Chords & Tabs

Version: 1 Type: Tab 0 ratings
1 star 2 stars 3 stars 4 stars 5 stars
comments

Victim Of Reality Tab

#----------------------------------PLEASE NOTE--------------------------------#
#This file is the author's own work and represents their interpretation of the#
#song. You may only use this file for private study, scholarship, or research.#
#-----------------------------------------------------------------------------#
#-- File created with Instab - http://www.pconline.com/~smcarey/instab.html --#
#-----------------------------------------------------------------------------#

Author/Artist: pennywise
Title: victim of reality
Album: ?
Transcribed by: luke lundberg
Email: kane_72@hotmail.com

this tab is pretty correct however there is some errors, feel free to email me for corrections- standard tuning

------------------------------------------------------------------------------
------------------------------------------------------------------------------
-------------------------------------------------------------9-9--8--6--------
-8-8---11--11---6---8---6---3-3-3-3-----8-8--11-11--6--8--6--9-9--8--6--------
-8-8---11--11---6---8---6---3-3-3-3-----8-8--11-11--6--8--6--8-8--6--4--------
-6-6---9---9----4-/-6-\-4---1-1-1-1-----6-6--9--9---4/-6\-4-------------------
  intro                                                                       
[ Tab from: http://www.guitartabs.cc/tabs/p/pennywise/victim_of_reality_tab.html ]
------------------------------------------------------------------------------
------------------------------------------------------------------------------
------------------------------------------------------------------------------
-8---11--11---6--8--6---3-3-3-3---6-6-6-6---8---------------------------------
-8---11--11---6--8--6---3-3-3-3---6-6-6-6---8---------------------------------
-6---9---9----4/-6\-4---1-1-1-1---4-4-4-4---6---------------------------------
    intro cont                                                                

------------------------------------------------------------------------------
------------------------------------------------------------------------------
-------------------------------------------------------------9-9--8-6---------
--8-8--11--11---6--8--6----3-3-3-3----8-8--11--11--6--8--6---9-9--8-6---------
--8-8--11--11---6--8--6----3-3-3-3----8-8--11--11--6--8--6---8-8--6-4---------
--6-6--9---9----4/-6\-4----1-1-1-1----6-6---9--9---4/-6\-4--------------------
  verse p.m                                                                   

------------------------------------------------------------------------------
------------------------------------------------------------------------------
------------------------------------------------------------------------------
--8--11--11---6--8--6---3-3-3-3---6-6-6-6---8---------------------------------
--8--11--11---6--8--6---3-3-3-3---6-6-6-6---8---------------------------------
--6--9---9----4/-6\-4---1-1-1-1---4-4-4-4---6---------------------------------
  verse p.m, after that just play unmuted then muted that's it!               


Comments