Pennywise - Unknown Road Chords & Tabs

 

Unknown Road Chords & Tabs

Pennywise Chords & Tabs

Version: 1 Type: Tab 0 ratings
1 star 2 stars 3 stars 4 stars 5 stars
comments

Unknown Road Tab

   
submitted by RiotGirl
email = Riot323232@aol.com
song = Unknown Road
group = Pennywise
Comments = INTRO:
e-|------------------------------------|
B-|------------------------------------|
G-|------------------------------------|
D-|------------------------------------|
A-|-3-3-X-X-X-3-3-X-X-X-3-3-X-X-X------|
E-|-1-1-X-X-X-1-1-X-X-X-1-1-X-X-X-ETC--|

VERSE:
e-|---------------------|
B-|---------------------|
G-|---------------------|
D-|-----6-6-5-5-----8-8-|
A-|-3-3-4-4-3-3-6-6-6-6-|
E-|-1-1---------4-4-----|
[ Tab from: http://www.guitartabs.cc/tabs/p/pennywise/unknown_road_tab.html ]
CHORUS:
e-|---------------------------------|
B-|---------------------------------|
G-|---------------------------------|
D-|---------6-8-------------6-8-----|
A-|-3-3-3-3-4-6-8-7-3-3-3-3-4-6-8-7-|
E-|-1-1-1-1-----6-5-1-1-1-1-----6-5-|

BRIDGE:
e-|----------------------|
B-|----------------------|
G-|----------------------|
D-|---------10-8-6-4-6-8-|
A-|-3-3-3-3--8-6-4-2-4-6-|
E-|-1-1-1-1--------------|

OUTROTHING
e-|-------------------------------------|
B-|-------------------------------------|
G-|-------------------------------------|
D-|---------6-6-6-6---------10-10-10-10-|
A-|-3-3-3-3-4-4-4-4-8-8-8-8--8--8--8--8-|
E-|-1-1-1-1---------6-6-6-6-------------|
Comments