Pennywise - Time Marches On Chords & Tabs

 

Time Marches On Chords & Tabs

Pennywise Chords & Tabs

Version: 2 Type: Tab 0 ratings
1 star 2 stars 3 stars 4 stars 5 stars
comments

Time Marches On Tab

Artist:  Pennywise
Song:  Time Marches On
Album:  Land of the Free?
Track:  1
Tabbed by:  Bradley (bradleyperks@hotmail.com) 
Tuning:  Standard


E|-------------------------------------------------------------------------|
B|-------------------------------------------------------------------------|
G|10-10-10--10-10-10--10-6-6--6------10-10-10--10-10-10--10-6-6--6-8-8-----|
D|10-10-10--10-10-10--10-6-6--6-6-6--10-10-10--10-10-10--10-6-6--6-8-8-----|
A|-8-8--8---8--8--8--8-4-4--4-6-6---8--8--8---8--8--8---8-4-4--4-6-6-----|
E|------------------------------4-4----------------------------------------|

E|-------------------------------------------------------------------------|
B|-------------------------------------------------------------------------|
G|10-10-10--10-10-10--10-6-6--6--------------------------------------------|
D|10-10-10--10-10-10--10-6-6--6-6-6--6-8-8-8-8-8-8--10-10-10-10-10-10------|
A|-8-8--8---8--8--8--8-4-4--4-6-6--6-8-8-8-8-8-8--10-10-10-10-10-10------|
E|------------------------------4-4--4-6-6-6-6-6-6---8--8--8--8--8--8------|


E|-------------------------------------------------------------------------|
B|-------------------------------------------------------------------------|
G|10-10-10--10-10-10--10-6-6--6------10-10-10--10-10-10--10-6-6--6-8-8-----|
D|10-10-10--10-10-10--10-6-6--6-6-6--10-10-10--10-10-10--10-6-6--6-8-8-----|
A|-8-8--8---8--8--8--8-4-4--4-6-6---8--8--8---8--8--8---8-4-4--4-6-6-----|
E|------------------------------4-4----------------------------------------|


E|-------------------------------------------------------------------------|
B|-------------------------------------------------------------------------|
G|10-10-10--10-10-10--10-6-6--6--------------------------------------------|
D|10-10-10--10-10-10--10-6-6--6-6-6--6-8-8-8-8-8-8--10-10-10-10-10-10------|
A|-8-8--8---8--8--8--8-4-4--4-6-6--6-8-8-8-8-8-8--10-10-10-10-10-10------|
E|------------------------------4-4--4-6-6-6-6-6-6---8--8--8--8--8--8------|


E|-------------------------------------------------------------------------|
B|-------------------------------------------------------------------------|
G|10-8-10-10-10--6---8-8-8----10-8-10-10-8-10------------------------------|
D|10-8-10-10-10--6-6-8-8-8----10-8-10-10-8-10------------------------------|
A|-8-6--8--8--8--4-6-6-6-6-----8-6--8--8-6--8------------------------------|
E|-----------------4-------------------------------------------------------|

E|-------------------------------------------------------------------------|
B|-------------------------------------------------------------------------|
G|10-10-8-10-10-10--6---8-8-8--10-8-10-10-10--6-6-8-8-8--------------------|
D|10-10-8-10-10-10--6-6-8-8-8--10-8-10-10-10--6-6-8-8-8--------------------|
A|-8--8-6--8--8--8--4-6-6-6-6---8-6--8--8--8--4-4-6-6-6--------------------|
E|--------------------4----------------------------------------------------|

E|-------------------------------------------------------------------------|
B|-------------------------------------------------------------------------|
G|10-10-10-10-10-10-10-10-10-10--6-6-6-6-6-6-6-6-6-6-----------------------|
D|10-10-10-10-10-10-10-10-10-10--6-6-6-6-6-6-6-6-6-6--6-6-6-6-6-6-6-6-6-6--|
A|-8--8--8--8--8--8--8--8--8--8--4-4-4-4-4-4-4-4-4-4--6-6-6-6-6-6-6-6-6-6--|
E|----------------------------------------------------4-4-4-4-4-4-4-4-4-4--|



E|-------------------------------------------------------------------------|
B|-------------------------------------------------------------------------|
G|8-8-8-8-8--10-10-8-10-10-10--6---8-8-8--10-10-8-10-10-10--6-6-8-8-8------|
D|8-8-8-8-8--10-10-8-10-10-10--6-6-8-8-8--10-10-8-10-10-10--6-6-8-8-8------|
A|6-6-6-6-6---8--8-6--8--8--8--4-6-6-6-6---8--8-6--8--8--8--4-4-6-6-6------|
E|-------------------------------4-----------------------------------------|


E|-------------------------------------------------------------------------|
B|-------------------------------------------------------------------------|
G|10-10-10-10-10-10-10-10-10-10--6-6-6-6-6-6-6-6-6-6-----------------------|
D|10-10-10-10-10-10-10-10-10-10--6-6-6-6-6-6-6-6-6-6--6-6-6-6-6-6-6-6-6-6--|
A|-8--8--8--8--8--8--8--8--8--8--4-4-4-4-4-4-4-4-4-4--6-6-6-6-6-6-6-6-6-6--|
E|----------------------------------------------------4-4-4-4-4-4-4-4-4-4--|

						   ->   palm mute	 <-
E|-------------------------------------------------------------------------|
B|-------------------------------------------------------------------------|
G|8-8-8-8-8--10-10-10-10-10-10-10-10-10--6-6-6-6-6-6-6-6-------------------|
D|8-8-8-8-8--10-10-10-10-10-10-10-10-10--6-6-6-6-6-6-6-6-------------------|
A|6-6-6-6-6---8--8--8--8--8--8--8--8--8--4-4-4-4-4-4-4-4-------------------|
E|-------------------------------------------------------------------------|
						  ->	 palm mute	 <-

E|-------------------------------------------------------------------------|
B|-------------------------------------------------------------------------|
G|10-10-10-10-10-10-10-10--6-6-6-6----------10-10-10-10-10-10-10-10-6-6-6-6|
D|10-10-10-10-10-10-10-10--6-6-6-6-6-6-6-6--10-10-10-10-10-10-10-10-6-6-6-6|
A|-8--8--8--8--8--8--8--8--4-4-4-4-6-6-6-6---8--8--8--8--8--8--8--8-4-4-4-4|
E|---------------------------------4-4-4-4---------------------------------|

E|-------------------------------------------------------------------------|
B|-------------------------------------------------------------------------|
G|8-8-8-8--10-10-10-10-10-10-10-10--6-6-6-6--------------------------------|
D|8-8-8-8--10-10-10-10-10-10-10-10--6-6-6-6--6-6-6-6--8-8-8-8-8-8-8-8------|
A|6-6-6-6---8--8--8--8--8--8--8--8--4-4-4-4--6-6-6-6--8-8-8-8-8-8-8-8------|
E|-------------------------------------------4-4-4-4--6-6-6-6-6-6-6-6------|


E|-------------------------------------------------------------------------|
B|-------------------------------------------------------------------------|
G|-------------------------10-10-10-10-10-10-10-10--6-6-6-6----------------|
D|10-10-10-10-10-10-10-10--10-10-10-10-10-10-10-10--6-6-6-6--6-6-6-6-------|
A|10-10-10-10-10-10-10-10---8--8--8--8--8--8--8--8--4-4-4-4--6-6-6-6-------|
E|-8--8--8--8--8--8--8--8------------------------------------4-4-4-4-------|


E|-------------------------------------------------------------------------|
B|-------------------------------------------------------------------------|
G|10-10-10-10-10-10-10-10--6-6-6-6--8-8-8-8--10-10-10-10-10-10-10-10-------|
D|10-10-10-10-10-10-10-10--6-6-6-6--8-8-8-8--10-10-10-10-10-10-10-10-------|
A|-8--8--8--8--8--8--8--8--4-4-4-4--6-6-6-6---8--8--8--8--8--8--8--8-------|
E|-------------------------------------------------------------------------|

E|-------------------------------------------------------------------------|
B|-------------------------------------------------------------------------|
G|6-6-6-6------------------------------------------------------------------|
D|6-6-6-6--6-6-6-6--8-8-8-8-8-8-8-8--10-10-10-10-10-10-10-10---------------|
A|4-4-4-4--6-6-6-6--8-8-8-8-8-8-8-8--10-10-10-10-10-10-10-10---------------|
E|---------4-4-4-4--6-6-6-6-6-6-6-6---8--8--8--8--8--8--8--8---------------|

					    ->	   clean      <-
E|-------------------------------------------------------------------------|
B|-------------------------------------------------------------------------|
G|10-8-10-10-10--6---8-8-8--10-8-10-10-8-10--------------------------------|
D|10-8-10-10-10--6-6-8-8-8--10-8-10-10-8-10--------6-----------------------|
A|-8-6--8--8--8--4-6-6-6-6---8-6--8--8-6--8--8-6-8---8-6-4-----------------|
E|-----------------4---------------------------------------6---------------|
							->	 clean	<-
E|-------------------------------------------------------------------------|
B|-------------------------------------------------------------------------|
G|10-10-8-10-10-10--6---8-8-8--10-8-10-10-10--6-6-8-8-8--------------------|
D|10-10-8-10-10-10--6-6-8-8-8--10-8-10-10-10--6-6-8-8-8--------------------|
A|-8--8-6--8--8--8--4-6-6-6-6---8-6--8--8--8--4-4-6-6-6--------------------|
E|--------------------4----------------------------------------------------|

E|-------------------------------------------------------------------------|
B|-------------------------------------------------------------------------|
G|10-10-10-10-10-10-10-10-10-10--6-6-6-6-6-6-6-6-6-6-----------------------|
D|10-10-10-10-10-10-10-10-10-10--6-6-6-6-6-6-6-6-6-6--6-6-6-6-6-6-6-6-6-6--|
A|-8--8--8--8--8--8--8--8--8--8--4-4-4-4-4-4-4-4-4-4--6-6-6-6-6-6-6-6-6-6--|
E|----------------------------------------------------4-4-4-4-4-4-4-4-4-4--|

E|-------------------------------------------------------------------------|
B|-------------------------------------------------------------------------|
G|8-8-8-8-8--10-10-8-10-10-10--6---8-8-8--10-10-8-10-10-10--6-6-8-8-8------|
D|8-8-8-8-8--10-10-8-10-10-10--6-6-8-8-8--10-10-8-10-10-10--6-6-8-8-8------|
A|6-6-6-6-6---8--8-6--8--8--8--4-6-6-6-6---8--8-6--8--8--8--4-4-6-6-6------|
E|-------------------------------4-----------------------------------------|
[ Tab from: http://www.guitartabs.cc/tabs/p/pennywise/time_marches_on_tab_ver_2.html ]
E|-------------------------------------------------------------------------|
B|-------------------------------------------------------------------------|
G|10-10-10-10-10-10-10-10-10-10--6-6-6-6-6-6-6-6-6-6-----------------------|
D|10-10-10-10-10-10-10-10-10-10--6-6-6-6-6-6-6-6-6-6--6-6-6-6-6-6-6-6-6-6--|
A|-8--8--8--8--8--8--8--8--8--8--4-4-4-4-4-4-4-4-4-4--6-6-6-6-6-6-6-6-6-6--|
E|----------------------------------------------------4-4-4-4-4-4-4-4-4-4--|

						  ->   palm mute	 <-
E|-------------------------------------------------------------------------|
B|-------------------------------------------------------------------------|
G|8-8-8-8-8--10-10-10-10-10-10-10-10-10--6-6-6-6-6-6-6-6-------------------|
D|8-8-8-8-8--10-10-10-10-10-10-10-10-10--6-6-6-6-6-6-6-6-------------------|
A|6-6-6-6-6---8--8--8--8--8--8--8--8--8--4-4-4-4-4-4-4-4-------------------|
E|-------------------------------------------------------------------------|
						  ->	 palm mute	 <-

E|-------------------------------------------------------------------------|
B|-------------------------------------------------------------------------|
G|10-10-10-10-10-10-10-10--6-6-6-6----------10-10-10-10-10-10-10-10--6-6-6-|
D|10-10-10-10-10-10-10-10--6-6-6-6-6-6-6-6--10-10-10-10-10-10-10-10--6-6-6-|
A|-8--8--8--8--8--8--8--8--4-4-4-4-6-6-6-6---8--8--8--8--8--8--8--8--4-4-4-|
E|---------------------------------4-4-4-4---------------------------------|

E|-------------------------------------------------------------------------|
B|-------------------------------------------------------------------------|
G|8-8-8-8--10-10-10-10-10-10-10-10--6-6-6-6--------------------------------|
D|8-8-8-8--10-10-10-10-10-10-10-10--6-6-6-6--6-6-6-6--8-8-8-8-8-8-8-8------|
A|6-6-6-6---8--8--8--8--8--8--8--8--4-4-4-4--6-6-6-6--8-8-8-8-8-8-8-8------|
E|-------------------------------------------4-4-4-4--6-6-6-6-6-6-6-6------|


E|-------------------------------------------------------------------------|
B|-------------------------------------------------------------------------|
G|-------------------------10-10-10-10-10-10-10-10--6-6-6-6----------------|
D|10-10-10-10-10-10-10-10--10-10-10-10-10-10-10-10--6-6-6-6--6-6-6-6-------|
A|10-10-10-10-10-10-10-10---8--8--8--8--8--8--8--8--4-4-4-4--6-6-6-6-------|
E|-8--8--8--8--8--8--8--8------------------------------------4-4-4-4-------|


E|-------------------------------------------------------------------------|
B|-------------------------------------------------------------------------|
G|10-10-10-10-10-10-10-10--6-6-6-6--8-8-8-8--10-10-10-10-10-10-10-10-------|
D|10-10-10-10-10-10-10-10--6-6-6-6--8-8-8-8--10-10-10-10-10-10-10-10-------|
A|-8--8--8--8--8--8--8--8--4-4-4-4--6-6-6-6---8--8--8--8--8--8--8--8-------|
E|-------------------------------------------------------------------------|

E|-------------------------------------------------------------------------|
B|-------------------------------------------------------------------------|
G|6-6-6-6------------------------------------------------------------------|
D|6-6-6-6--6-6-6-6--8-8-8-8-8-8-8-8--10-10-10-10-10-10-10-10---------------|
A|4-4-4-4--6-6-6-6--8-8-8-8-8-8-8-8--10-10-10-10-10-10-10-10---------------|
E|---------4-4-4-4--6-6-6-6-6-6-6-6---8--8--8--8--8--8--8--8---------------|

E|-------------------------------------------------------------------------|
B|-------------------------------------------------------------------------|
G|10-8-10-10-10--6---8-8-8--10-8-10-10-10--6-6-8-8-8--10-8-10-10-10--------|
D|10-8-10-10-10--6-6-8-8-8--10-8-10-10-10--6-6-8-8-8--10-8-10-10-10--------|
A|-8-6--8--8--8--4-6-6-6-6---8-6--8--8--8--4-4-6-6-6---8-6--8--8--8--------|
E|-----------------4-------------------------------------------------------|

E|-------------------------------------------------------------------------|
B|-------------------------------------------------------------------------|
G|6---8-8-8--10-8-10-10-8-10--10-10-10-10-10-10-10-10--6-6-6-6-------------|
D|6-6-8-8-8--10-8-10-10-8-10--10-10-10-10-10-10-10-10--6-6-6-6--6-6-6-6----|
A|4-6-6-6-6---8-6--8--8-6--8---8--8--8--8--8--8--8--8--4-4-4-4--6-6-6-6----|
E|--4-----------------------------------------------------------4-4-4-4----|

E|-------------------------------------------------------------------------|
B|-------------------------------------------------------------------------|
G|10-10-10-10-10-10-10-10--6-6-6-6--8-8-8-8--10-10-10-10-10-10-10-10-------|
D|10-10-10-10-10-10-10-10--6-6-6-6--8-8-8-8--10-10-10-10-10-10-10-10-------|
A|-8--8--8--8--8--8--8--8--4-4-4-4--6-6-6-6---8--8--8--8--8--8--8--8-------|
E|-------------------------------------------------------------------------|

E|-------------------------------------------------------------------------|
B|-------------------------------------------------------------------------|
G|6-6-6-6------------------------------------------------------------------|
D|6-6-6-6--6-6-6-6--8-8-8-8-8-8-8-8--10-10-10-10-10-10-10-10---------------|
A|4-4-4-4--6-6-6-6--8-8-8-8-8-8-8-8--10-10-10-10-10-10-10-10---------------|
E|---------4-4-4-4--6-6-6-6-6-6-6-6---8--8--8--8--8--8--8--8---------------|

E|-------------------------------------------------------------------------|
B|-------------------------------------------------------------------------|
G|10-10-10--10-10-10--10-6-6--6------10-10-10--10-10-10--10-6-6--6-8-8-----|
D|10-10-10--10-10-10--10-6-6--6-6-6--10-10-10--10-10-10--10-6-6--6-8-8-----|
A|-8-8--8---8--8--8--8-4-4--4-6-6---8--8--8---8--8--8---8-4-4--4-6-6-----|
E|------------------------------4-4----------------------------------------|

E|-------------------------------------------------------------------------|
B|-------------------------------------------------------------------------|
G|10-10-10--10-10-10--10-6-6--6--------------------------------------------|
D|10-10-10--10-10-10--10-6-6--6-6-6--6-8-8-8-8-8-8--10-10-10-10-10-10------|
A|-8-8--8---8--8--8--8-4-4--4-6-6--6-8-8-8-8-8-8--10-10-10-10-10-10------|
E|------------------------------4-4--4-6-6-6-6-6-6---8--8--8--8--8--8------|

E|-------------------------------------------------------------------------|
B|-------------------------------------------------------------------------|
G|10-10-8-10-10-10--6---8-8-8--10-10-8-10-10-8-10--------------------------|
D|10-10-8-10-10-10--6-6-8-8-8--10-10-8-10-10-8-10--------------------------|
A|-8--8-6--8--8--8--4-6-6-6-6---8--8-6--8--8-6--8--------------------------|
E|--------------------4----------------------------------------------------|

E|-------------------------------------------------------------------------|
B|-------------------------------------------------------------------------|
G|10-10-8-10-10-10--6---8-8-8--10-10-8-10-10-10--6-6-8-8-8-----------------|
D|10-10-8-10-10-10--6-6-8-8-8--10-10-8-10-10-10--6-6-8-8-8-----------------|
A|-8--8-6--8--8--8--4-6-6-6-6---8--8-6--8--8--8--4-4-6-6-6-----------------|
E|--------------------4----------------------------------------------------|

E|-------------------------------------------------------------------------|
B|-------------------------------------------------------------------------|
G|10-10-10-10-10-10-10-10-10-10--6-6-6-6-6-6-6-6-6-6-----------------------|
D|10-10-10-10-10-10-10-10-10-10--6-6-6-6-6-6-6-6-6-6--6-6-6-6-6-6-6-6-6-6--|
A|-8--8--8--8--8--8--8--8--8--8--4-4-4-4-4-4-4-4-4-4--6-6-6-6-6-6-6-6-6-6--|
E|----------------------------------------------------4-4-4-4-4-4-4-4-4-4--|

E|-------------------------------------------------------------------------|
B|-------------------------------------------------------------------------|
G|8-8-8-8--10-10-10-10-10-10-10-10-10-10--6-6-6-6--8-8-8-8-----------------|
D|8-8-8-8--10-10-10-10-10-10-10-10-10-10--6-6-6-6--8-8-8-8-----------------|
A|6-6-6-6---8--8--8--8--8--8--8--8--8--8--4-4-4-4--6-6-6-6-----------------|
E|-------------------------------------------------------------------------|

E|-------------------------------------------------------------------------|
B|-------------------------------------------------------------------------|
G|10-10-10-10-10-10-10-10-10-10--6-6-6-6--8-8-8-8--------------------------|
D|10-10-10-10-10-10-10-10-10-10--6-6-6-6--8-8-8-8--------------------------|
A|-8--8--8--8--8--8--8--8--8--8--4-4-4-4--6-6-6-6--------------------------|
E|-------------------------------------------------------------------------|

E|-------------------------------------------------------------------------|
B|-------------------------------------------------------------------------|
G|10-10-10-10-10-10-10-10-10-10--6-6-6-6--8-8-8-8--6-6-6-6-6-6-6-6---------|
D|10-10-10-10-10-10-10-10-10-10--6-6-6-6--8-8-8-8--6-6-6-6-6-6-6-6---------|
A|-8--8--8--8--8--8--8--8--8--8--4-4-4-4--6-6-6-6--4-4-4-4-4-4-4-4---------|
E|-------------------------------------------------------------------------|

E|-------------------------------------------------------------------------|
B|-------------------------------------------------------------------------|
G|8-8-8-8-8-8-8-8--6-8--10-10-8-10-----------------------------------------|
D|8-8-8-8-8-8-8-8--6-8--10-10-8-10-----------------------------------------|
A|6-6-6-6-6-6-6-6--4-6---8--8-6--8-----------------------------------------|
E|-------------------------------------------------------------------------|


Sorry, i haven't worked out the solo yet
Comments