Pennywise - The World Chords & Tabs

 

The World Chords & Tabs

Pennywise Chords & Tabs

Version: 2 Type: Tab 0 ratings
1 star 2 stars 3 stars 4 stars 5 stars
comments

The World Tab

x=dead note
/=slide (in this song, slide the whole power chord, not just
         one note)


*Intro p1-2x                  
E ------------------------------------------------
B ------------------------------------------------
G -----------------------------3-3----------------
D -4-4-xxxx-4-4-xxxx-5-5-xxxx------5-5------------
A ------------------------------------------------
E ------------------------------------------------
 
*Intro p2-2x (the other guitar plays dead notes with some sort
of flange effect)
E ------------------------------------------------------------------
B ------------------------------------------------------------------
G ------------------------------------------------------------------
D -4-4-xxxx-4-4-xxxx--4-4-xxxx-4--7-4-7--4-4-xxxx-4-4-xxxx-4-4-xxxx-
A -4-4-xxxx-4-4-xxxx--4-4-xxxx-4--7-4-7--4-4-xxxx-4-4-xxxx-4-4-xxxx-
E -2-2-xxxx-2-2-xxxx--2-2-xxxx-2/ 5-2/5--2-2-xxxx-2-2-xxxx-2-2-xxxx-  
 
E ----------------------------------------
B ----------------------------------------
G ----------------------------------------
D -4--7--4-9------------------------------
A -4--7--4-9------------------------------
E -2/ 5--2/7------------------------------

*Verse-4x
E -------------------------------------------------------
B -------------------------------------------------------
G -------------------------------------------------------
D -4-4-4444-4-444--7-7-777--9-9-999----------------------
A -4-4-4444-4-444--7-7-777--9-9-999----------------------
E -2-2-2222-2-222--5-5-555--7-7-777----------------------

*Pre Chorus
E ----------------------------------------------------
B ----------------------------------------------------
G ----------------------------------------------------
D -4-4-xxxx-4-4-xxxx-4-xxxxxx-4-----------------------
A -4-4-xxxx-4-4-xxxx-4-xxxxxx-4-----------------------
E -2-2-xxxx-2-2-xxxx-2-xxxxxx-2-----------------------
[ Tab from: http://www.guitartabs.cc/tabs/p/pennywise/the_world_tab_ver_2.html ]
*Chorus
E -----------------------------------------------------
B -----------------------------------------------------
G -----------------------------------------------------
D -4-4-4-4-4-4-4-4--7-7-7-7--9-9-9-9-------------------
A -4-4-4-4-4-4-4-4--7-7-7-7--9-9-9-9-------------------
E -2-2-2-2-2-2-2-2--5-5-5-5--7-7-7-7-------------------  

*Solo    (uses a wah wah pedal)
E -9-9-9-999--9-9-9-999------------------------------
B ---------------------------------------------------
G ---------------------------6-6-6-666-9-9-9-999-----
D ---------------------------------------------------
A ---------------------------------------------------
E --------------------------------------------------- 

(If you want to make the solo a little different, play the first part 2x, then play this)
E -9-9-9-999-9-9-9-999--12-12-12-121212--14-14-14-141414---9-9-9-999-
B -------------------------------------------------------------------
G -------------------------------------------------------------------
D -------------------------------------------------------------------
A -------------------------------------------------------------------
E -------------------------------------------------------------------

E -9-9-9-999--14141414-12121212---------------------
B ------------------------------14141414-12121212---
G --------------------------------------------------
D --------------------------------------------------
A --------------------------------------------------
E --------------------------------------------------

Post Solo Break-1 1/2x
E ---------------------------------------------------------------
B ---------------------------------------------------------------
G -6------9-----------9-----6------9-----------11-9--------------
D -6------9------9----9-9---6------9-----9-----11-9--------------
A -4(8x)--7(4x)--9----7-9---4(8x)--7(4x)-9-----9--7--------------
E ---------------7(2x)--7----------------7(2x)-------------------


Song Order:              For any comments or requests, email me
Intro p1                  at RoCkY10078@netscape.net
Intro p2
verse
pre chorus
chorus
Intro p1/p2(different from the first, listen to it, its easy to figure out)          
verse
pre chorus
chorus  
Solo (rythem guitar plays verse notes over lead part)
Post Solo Break
Chorus
Comments