Pennywise - The Secret Chords & Tabs

 

The Secret Chords & Tabs

Pennywise Chords & Tabs

Version: 3 Type: Tab 0 ratings
1 star 2 stars 3 stars 4 stars 5 stars
comments

The Secret Tab

   
Pennywise
The Secret
Tabbed by Pennywise 666


e-|------------------------------------------------------------|
B-|------------------------------------------------------------|
G-|------------------------------------------------------------|
D-|-7-7-x-x-9-9-10-10-5-5-5-5-5-7-7-x-x-9-9-10-10-12-12-12-12--|
A-|-7-7-x-x-9-9-10-10-5-5-5-5-5-7-7-x-x-9-9-10-10-12-12-12-12--|
E-|-5-5-x-x-7-7--8--8-3-3-3-3-3-5-5-x-x-7-7--8--8-10-10-10-10--|

e-|-----------------------------------------------|
B-|-----------------------------------------------|
G-|---------------------------9-9-9-9-9-9-9-9-9-9-|
D-|-7-7-x-x-9-9-10-10-5-5-5-5-9-9-9-9-9-9-9-9-9-9-|
A-|-7-7-x-x-9-9-10-10-5-5-5-5-7-7-7-7-7-7-7-7-7-7-|
E-|-5-5-x-x-7-7--8--8-3-3-3-3---------------------|

verses:

e-|-----------------------------------------------|
B-|-----------------------------------------------|
G-|-------------------------------------7-7-7-7-7-|
D-|-7-7-9-9-10-10-10-10-10-10-3-3-3-3-3-7-7-7-7-7-|
A-|-7-7-9-9-10-10-10-10-10-10-3-3-3-3-3-5-5-5-5-5-|
E-|-5-5-7-7--8--8--8--8--8--8-1-1-1-1-1-----------|


e-|-----------------------------------------------|
B-|-----------------------------------------------|
G-|-------------------------------------9-9-9-9-9-|
D-|-7-7-9-9-10-10-10-10-10-10-5-5-5-5-5-9-9-9-9-9-|
A-|-7-7-9-9-10-10-10-10-10-10-5-5-5-5-5-7-7-7-7-7-|
E-|-5-5-7-7--8--8--8--8--8--8-3-3-3-3-3-----------|
[ Tab from: http://www.guitartabs.cc/tabs/p/pennywise/the_secret_tab_ver_3.html ]
chorus:begin the chorus by playing the intro and than it goes into
this.... which is more or less the same thing...
e-|----------------------------------------------------------------------|
B-|----------------------------------------------------------------------|
G-|----------------------------------------------------------------------|
D-|-7-7-9-9-10-10-12-12-12-7-7-9-9-10-10-12-12-12-7-7-9-9-10-10-12-12-12-|
A-|-7-7-9-9-10-10-12-12-12-7-7-9-9-10-10-12-12-12-7-7-9-9-10-10-12-12-12-|
E-|-5-5-7-7--8--8-10-10-10-5-5-7-7--8--8-10-10-10-5-5-7-7--8--8-10-10-10-|

e-|-----------------------------------|
B-|-----------------------------------|
G-|-9-9-9-9-9-9-9-9-9-9-9-9-9-9-9-9-9-|
D-|-9-9-9-9-9-9-9-9-9-9-9-9-9-9-9-9-9-|
A-|-7-7-7-7-7-7-7-7-7-7-7-7-7-7-7-7-7-|
E-|-----------------------------------|

solo:

e-|-------/55555---/55555---------------------------------|
B-|-------/55555---/55555---------------------------------|
G-|-12/----------7--------7--578-7h8h7-75-5h7-5h7-5h7-5h7-|
D-|-------------------------------------------------------|
A-|-------------------------------------------------------|
E-|-------------------------------------------------------|

e-|----------------------------------------------|
B-|----------------------------------------------|
G-|-------------------5b----5h7-5h7-5h7-7/9b-----|
D-|---------5--57-57-----75----------------------|
A-|-----5-7---7----------------------------------|
E-|-5-8------------------------------------------|

e-|-----------------------------------8*-*10-*12-|
B-|-/10-10-10-10---/10-10-10-10---10*------------|
G-|----------------------------------------------|
D-|----------------------------------------------|
A-|----------------------------------------------|
E-|----------------------------------------------|

e-|-10h1210h1210h1210h1210h1210h1210h1210h12-12-10----10-------|
B-|------------------------------------------------13----13-12-|
G-|------------------------------------------------------------|
D-|------------------------------------------------------------|
A-|------------------------------------------------------------|
E-|------------------------------------------------------------|
Comments