Pennywise - The Secret Chords & Tabs

 

The Secret Chords & Tabs

Pennywise Chords & Tabs

Version: 2 Type: Bass Tab 0 ratings
1 star 2 stars 3 stars 4 stars 5 stars
comments

The Secret Bass Tab

Song: The Secret
Band: Pennywise
tabbed by: DaveParisi

Intro & chorus:

G:---------------------------------------------------------------
D:---------------------------------------------------------------
A:-0-0-x-x-2-3-3---5--0-0-x-x-2-3-3-3----------------------------
E:---------------3--------------------0-1-0-1-0------------------

x=click, or rest

(cont.)

G:---------------------------------------------------------------
D:---------------------------------------------------------------
A:-0-0-x-x-2-3-3---5--7-7--7-7--7-7--7-7--7~~--------------------
E:---------------3-----------------------------------------------

~~=hold

Bass solo & verse:
[ Tab from: http://www.guitartabs.cc/tabs/p/pennywise/the_secret_btab_ver_2.html ]
G:-------------------------------------*--------------------------
D:-------------------------------------*--------------------------
A:-0-0-0-2-3-3--3-3--3-----------------*-5-5--5-5--5-5--5-5-------
E:---------------------3-3-1--1--1--1-1*--------------------------
^^^^^^^^^^^^^^^^^^^^
after stars is first ending, then play this the second time:

(cont.)

G:----------------*-----------------------------------------------
D:----------------*-----------------------------------------------
A:----------------*-0--0-0-2-2--2-3-3-3--5-5-5--------------------
E:-0-0--0-0--0--0-*-----------------------------------------------
^^^^^^^^^^^^^^^^^^^^^^^^^^^
after stars is the outro^






Comments