Pennywise - Take A Look Around Chords & Tabs

 

Take A Look Around Chords & Tabs

Pennywise Chords & Tabs

Version: 1 Type: Tab 0 ratings
1 star 2 stars 3 stars 4 stars 5 stars
comments

Take A Look Around Tab

   
pennywise
take a look around
the fuse('05)
----------------------------------------------------------------------------
tabber: Wobbler
standart tuning
----------------------------------------------------------------------------
i'm not very sure about the fast palm muting part in the verse because its very
difficult to hear...if someone get it better,pleaZ mail!!

intro
e|------------------------------------------------------------|
B|------------------------------------------------------------|
G|--------9\8-11-1111--------9\8-11-1111----------9\8-11-1111-|
D|-6------9\8-11-1111-6------9\8-11-1111-66-666-6-9\8-11-1111-|
A|-6------7\6--9--9-9-6------7\6--9--9-9-66-666-6-7\6--9--9-9-|
E|-4-bass-------------4-bass-------------44-444-4-------------|

e|----------------------|
B|----------------------|
G|-----9-99-----11-1111-|
D|-666-9-99-999-11-1111-|
A|-666-7-77-999--9--9-9-|
E|-444------777---------|
pm ...      ...

verse \"i am taking..."\
e|---------------------------------------------------------------|
B|---------------------------------------------------------------|
G|----------9\8-11-1111----------9\8-11--------------9\8-11-1111-|
D|-66-666-6-9\8-11-1111-66-666-6-9\8-11-999-66-666-6-9\8-11-1111-|
A|-66-666-6-7\6--9--9-9-66-666-6-7\6--9-999-66-666-6-7\6--9--9-9-|
E|-44-444-4-------------44-444-4--------777-44-444-4-------------|
pm                                      ...

verse (fast palm muting part) \"...now i am so found..."\
e|---------------------------|
B|---------------------------|
G|---------------------------|
D|-66666666-9\8/9/11\9\8\6\5-|
A|-66666666-7\6/7/-9\7\6\4\3-|
E|-44444444------------------|
pm ........ ................

verse \"a victim of circumstance..."\
e|---------------------------------------------------------------|
B|---------------------------------------------------------------|
G|----------9\8-11-1111----------9\8-11--------------9\8-11-1111-|
D|-66-666-6-9\8-11-1111-66-666-6-9\8-11-999-66-666-6-9\8-11-1111-|
A|-66-666-6-7\6--9--9-9-66-666-6-7\6--9-999-66-666-6-7\6--9--9-9-|
E|-44-444-4-------------44-444-4--------777-44-444-4-------------|
pm                                      ...

verse (fast palm muting part) \"...and i'll be moving on..."\
e|---------------------------|
B|---------------------------|
G|---------------------------|
D|-66666666-9\8/9/11\9\8\6\5-|
A|-66666666-7\6/7/-9\7\6\4\3-|
E|-44444444------------------|
pm ........ ................

pre-chorus \"they say you can't make a difference..."\
e|-------------------------------------------------------------------------|
B|-------------------------------------------------------------------------|
G|------------------88-8-88----11-1111------------------88-8-88----11-1111-|
D|-66-666-666-666-6-88-8-88-99-11-1111-66-666-666-666-6-88-8-88-99-11-1111-|
A|-66-666-666-666-6-66-6-66-99--9--9-9-66-666-666-666-6-66-6-66-99--9--9-9-|
E|-44-444-444-444-4---------77---------44-444-444-444-4---------77---------|

pre-chorus \"it seems to me if you take your time..."\
e|-------------------------------------------------------------------|
B|-------------------------------------------------------------------|
G|---------------88-8-88----11-1111---------------88-8-88----11-1111-|
D|-6666666666666-88-8-88-99-11-1111-6666666666666-88-8-88-99-11-1111-|
A|-6666666666666-66-6-66-99--9--9-9-6666666666666-66-6-66-99--9--9-9-|
E|-4444444444444---------77---------4444444444444---------77---------|
pm .............                    .............

chorus \"think of all the things your missing..."\
e|----------------------------------------------------------------------|
B|----------------------------------------------------------------------|
G|----------9---9-11-1111----------9---9-11-1111----------9---9-11-1111-|
D|-6-66-999-9-9-9-11-1111-6-66-999-9-9-9-11-1111-6-66-999-9-9-9-11-1111-|
A|-6-66-999-7-9-7--9--9-9-6-66-999-7-9-7--9--9-9-6-66-999-7-9-7--9--9-9-|
E|-4-44-777---7-----------4-44-777---7-----------4-44-777---7-----------|

chorus end \"...could be!!!"\
e|----------------------------------|
B|----------------------------------|
G|----------------------------------|
D|-66-6-66-6-1313-\\\pickslide\\\---|
A|-66-6-66-6-1111-------------------|
E|-44-4-44-4------------------------|
[ Tab from: http://www.guitartabs.cc/tabs/p/pennywise/take_a_look_around_tab.html ]
verse \"we can do better..."\
e|---------------------------------------------------------------|
B|---------------------------------------------------------------|
G|----------9\8-11-1111----------9\8-11--------------9\8-11-1111-|
D|-66-666-6-9\8-11-1111-66-666-6-9\8-11-999-66-666-6-9\8-11-1111-|
A|-66-666-6-7\6--9--9-9-66-666-6-7\6--9-999-66-666-6-7\6--9--9-9-|
E|-44-444-4-------------44-444-4--------777-44-444-4-------------|
pm                                      ...

verse (fast palm muting part) \"...are the stepping stones of life..."\
e|---------------------------|
B|---------------------------|
G|---------------------------|
D|-66666666-9\8/9/11\9\8\6\5-|
A|-66666666-7\6/7/-9\7\6\4\3-|
E|-44444444------------------|
pm ........ ................

verse \"defeat is in the past..."\
e|---------------------------------------------------------------|
B|---------------------------------------------------------------|
G|----------9\8-11-1111----------9\8-11--------------9\8-11-1111-|
D|-66-666-6-9\8-11-1111-66-666-6-9\8-11-999-66-666-6-9\8-11-1111-|
A|-66-666-6-7\6--9--9-9-66-666-6-7\6--9-999-66-666-6-7\6--9--9-9-|
E|-44-444-4-------------44-444-4--------777-44-444-4-------------|
pm                                      ...

verse (fast palm muting part) \"...it's time to get it right..."\
e|---------------------------|
B|---------------------------|
G|---------------------------|
D|-66666666-9\8/9/11\9\8\6\5-|
A|-66666666-7\6/7/-9\7\6\4\3-|
E|-44444444------------------|
pm ........ ................

pre-chorus \"they say you can't make a difference..."\
e|-------------------------------------------------------------------------|
B|-------------------------------------------------------------------------|
G|------------------88-8-88----11-1111------------------88-8-88----11-1111-|
D|-66-666-666-666-6-88-8-88-99-11-1111-66-666-666-666-6-88-8-88-99-11-1111-|
A|-66-666-666-666-6-66-6-66-99--9--9-9-66-666-666-666-6-66-6-66-99--9--9-9-|
E|-44-444-444-444-4---------77---------44-444-444-444-4---------77---------|

pre-chorus \"it seems to me if you take your time..."\
e|-------------------------------------------------------------------|
B|-------------------------------------------------------------------|
G|---------------88-8-88----11-1111---------------88-8-88----11-1111-|
D|-6666666666666-88-8-88-99-11-1111-6666666666666-88-8-88-99-11-1111-|
A|-6666666666666-66-6-66-99--9--9-9-6666666666666-66-6-66-99--9--9-9-|
E|-4444444444444---------77---------4444444444444---------77---------|
pm .............                    .............

chorus \"think of all the things your missing..."\
e|----------------------------------------------------------------------|
B|----------------------------------------------------------------------|
G|----------9---9-11-1111----------9---9-11-1111----------9---9-11-1111-|
D|-6-66-999-9-9-9-11-1111-6-66-999-9-9-9-11-1111-6-66-999-9-9-9-11-1111-|
A|-6-66-999-7-9-7--9--9-9-6-66-999-7-9-7--9--9-9-6-66-999-7-9-7--9--9-9-|
E|-4-44-777---7-----------4-44-777---7-----------4-44-777---7-----------|

chorus end \"...could be!!!"\
e|--------------------------|
B|--------------------------|
G|--------------------------|
D|-66-6-66-6-13131313131313-|
A|-66-6-66-6-11111111111111-|
E|-44-4-44-4----------------|

interlude \"this is not the end..."\
e|------------------------------------------------------------------|
B|------------------------------------------------------------------|
G|------------------------------------------------------------------|
D|-------------999---------------999---------------999--------------|
A|-66666666-999---99-66666666-999---99-66666666-999---99-66666666-6-|
E|------------------------------------------------------------------|
pm ........ ........ ........ ........ ........ ........ ........ .

breakdown \"...time and again...time and again..."\
e|----------------------------------------------------------------------|
B|----------------------------------------------------------------------|
G|---------------9---9/11---------------9---9/11---------------9---9/11-|
D|-6-6-666-6-999-9-9-9/11-6-6-666-6-999-9-9-9/11-6-6-666-6-999-9-9-9/11-|
A|-6-6-666-6-999-7-9-7/-9-6-6-666-6-999-7-9-7/-9-6-6-666-6-999-7-9-7/-9-|
E|-4-4-444-4-777---7------4-4-444-4-777---7------4-4-444-4-777---7------|

e|------------------------|
B|------------------------|
G|---------------9---9/11-|
D|-6-6-666-6-999-9-9-9/11-|
A|-6-6-666-6-999-7-9-7/-9-|
E|-4-4-444-4-777---7------|

outro \"this is not the end..."\
e|----------------------------------------------------------------------|
B|----------------------------------------------------------------------|
G|---------------9---9/11---------------9---9/11---------------9---9/11-|
D|-6-6-666-6-999-9-9-9/11-6-6-666-6-999-9-9-9/11-6-6-666-6-999-9-9-9/11-|
A|-6-6-666-6-999-7-9-7/-9-6-6-666-6-999-7-9-7/-9-6-6-666-6-999-7-9-7/-9-|
E|-4-4-444-4-777---7------4-4-444-4-777---7------4-4-444-4-777---7------|

e|-----------|
B|-----------|
G|-----------|
D|-6666666-6-|
A|-6666666-6-|
E|-4444444-4-|
pm .......

thats it!!!
E-MAIL at el_diablo7th@freenet.de
cYa
Comments