Pennywise - Stand By Me Chords & Tabs

 

Stand By Me Chords & Tabs

Pennywise Chords & Tabs

Version: 1 Type: Tab 0 ratings
1 star 2 stars 3 stars 4 stars 5 stars
comments

Stand By Me Tab

   
From Guitar Tab Universe - www.guitartabs.cc    [save this file]


Pennywise--Stand by Me

(BASS) 
G----------------------------------------------------------
D----------------------------------------------------------
A----------------------------------------------------------
E--5--5--5--0--4--5--5--5--5--4--2--2--2--0--1--2----------

G----------------------------------------------------------
D----------------------------------------------------------
A----------------------------------------------------------
E-2--2--2--1--0--0--0--0--1--2--2--2--0--4--5--5-----------

(GUITAR)
  (a)                           (a)
E---------------------------------------------------------- 
B----------------------------------------------------------
G-6-----------------------------6--------------------------
D-7-----------------------------7-------------------------- 
A-7-----------------------------7-------------------------- 
E-5-----------------------------5--------------------------
 when the night---------------has come 
                                (d)
E--------------------------------2------------------------- 
B--------------------------------3-------------------------
G--3-----------------------------2-------------------------
D--4-------------------------------------------------------
A--4-------------------------------------------------------
E--2------------------------------------------------------- 
 and the land is dark, and the moon----------is the 
   (e)              (a)          (a)          (a)
E----------------------------------------------------------
B---------------------------------------------------------- 
G---1-----------6------------6------------6----------------
D---2-----------7------------7------------7----------------
A---2-----------7------------7------------7----------------
E---0-----------5------------5------------5----------------
 only--light u see. well i wont--b afraid  
                                (d)
E--------------------------------2-------------------------
B--------------------------------3-------------------------
G---------3----------------------2-------------------------
D---------4------------------------------------------------
A---------4------------------------------------------------
E---------2------------------------------------------------
 no i-i wont--b afraid, just as long--as u 



   (e)                 (a)
E---------------------------------------------------------- 
B----------------------------------------------------------
G---1-------------------6----------------------------------
D---2-------------------7---------------------------------- 
A---2-------------------7----------------------------------
E---0-------------------5----------------------------------
 stand-----stand by me
 
the chorus is the same 
-----------------------------------------------------------

CHORUS - 
so darlin, darlin stand 
by me o stand 
by me 
just as long 
as u stand 
stand by me 
2ND VERSE - 
when the sky, that we look upon 
crumbles and falls 
and the mountains 
tumble to the sea 
i won't cry i won't cry 
no i wont shed a tear 
just as long as u fuckin stand by me 

-tabbed by agricola
From Guitar Tab Universe - www.guitartabs.cc    [save this file]


Pennywise--Stand by Me

(BASS) 
G----------------------------------------------------------
D----------------------------------------------------------
A----------------------------------------------------------
E--5--5--5--0--4--5--5--5--5--4--2--2--2--0--1--2----------

G----------------------------------------------------------
D----------------------------------------------------------
A----------------------------------------------------------
E-2--2--2--1--0--0--0--0--1--2--2--2--0--4--5--5-----------

(GUITAR)
  (a)                           (a)
E---------------------------------------------------------- 
B----------------------------------------------------------
G-6-----------------------------6--------------------------
D-7-----------------------------7-------------------------- 
A-7-----------------------------7-------------------------- 
E-5-----------------------------5--------------------------
 when the night---------------has come 
                                (d)
E--------------------------------2------------------------- 
B--------------------------------3-------------------------
G--3-----------------------------2-------------------------
D--4-------------------------------------------------------
A--4-------------------------------------------------------
E--2------------------------------------------------------- 
 and the land is dark, and the moon----------is the 
   (e)              (a)          (a)          (a)
E----------------------------------------------------------
B---------------------------------------------------------- 
G---1-----------6------------6------------6----------------
D---2-----------7------------7------------7----------------
A---2-----------7------------7------------7----------------
E---0-----------5------------5------------5----------------
 only--light u see. well i wont--b afraid  
                                (d)
E--------------------------------2-------------------------
B--------------------------------3-------------------------
G---------3----------------------2-------------------------
D---------4------------------------------------------------
A---------4------------------------------------------------
E---------2------------------------------------------------
 no i-i wont--b afraid, just as long--as u 



   (e)                 (a)
E---------------------------------------------------------- 
B----------------------------------------------------------
G---1-------------------6----------------------------------
D---2-------------------7---------------------------------- 
A---2-------------------7----------------------------------
E---0-------------------5----------------------------------
 stand-----stand by me
 
the chorus is the same 
-----------------------------------------------------------

CHORUS - 
so darlin, darlin stand 
by me o stand 
by me 
just as long 
as u stand 
stand by me 
2ND VERSE - 
when the sky, that we look upon 
crumbles and falls 
and the mountains 
tumble to the sea 
i won't cry i won't cry 
no i wont shed a tear 
just as long as u fuckin stand by me 
[ Tab from: http://www.guitartabs.cc/tabs/p/pennywise/stand_by_me_tab.html ]
-tabbed by agricola
From Guitar Tab Universe - www.guitartabs.cc    [save this file]


Pennywise--Stand by Me

(BASS) 
G----------------------------------------------------------
D----------------------------------------------------------
A----------------------------------------------------------
E--5--5--5--0--4--5--5--5--5--4--2--2--2--0--1--2----------

G----------------------------------------------------------
D----------------------------------------------------------
A----------------------------------------------------------
E-2--2--2--1--0--0--0--0--1--2--2--2--0--4--5--5-----------

(GUITAR)
  (a)                           (a)
E---------------------------------------------------------- 
B----------------------------------------------------------
G-6-----------------------------6--------------------------
D-7-----------------------------7-------------------------- 
A-7-----------------------------7-------------------------- 
E-5-----------------------------5--------------------------
 when the night---------------has come 
                                (d)
E--------------------------------2------------------------- 
B--------------------------------3-------------------------
G--3-----------------------------2-------------------------
D--4-------------------------------------------------------
A--4-------------------------------------------------------
E--2------------------------------------------------------- 
 and the land is dark, and the moon----------is the 
   (e)              (a)          (a)          (a)
E----------------------------------------------------------
B---------------------------------------------------------- 
G---1-----------6------------6------------6----------------
D---2-----------7------------7------------7----------------
A---2-----------7------------7------------7----------------
E---0-----------5------------5------------5----------------
 only--light u see. well i wont--b afraid  
                                (d)
E--------------------------------2-------------------------
B--------------------------------3-------------------------
G---------3----------------------2-------------------------
D---------4------------------------------------------------
A---------4------------------------------------------------
E---------2------------------------------------------------
 no i-i wont--b afraid, just as long--as u 



   (e)                 (a)
E---------------------------------------------------------- 
B----------------------------------------------------------
G---1-------------------6----------------------------------
D---2-------------------7---------------------------------- 
A---2-------------------7----------------------------------
E---0-------------------5----------------------------------
 stand-----stand by me
 
the chorus is the same 
-----------------------------------------------------------

CHORUS - 
so darlin, darlin stand 
by me o stand 
by me 
just as long 
as u stand 
stand by me 
2ND VERSE - 
when the sky, that we look upon 
crumbles and falls 
and the mountains 
tumble to the sea 
i won't cry i won't cry 
no i wont shed a tear 
just as long as u fuckin stand by me 

-tabbed by agricola
From Guitar Tab Universe - www.guitartabs.cc    [save this file]


Pennywise--Stand by Me

(BASS) 
G----------------------------------------------------------
D----------------------------------------------------------
A----------------------------------------------------------
E--5--5--5--0--4--5--5--5--5--4--2--2--2--0--1--2----------

G----------------------------------------------------------
D----------------------------------------------------------
A----------------------------------------------------------
E-2--2--2--1--0--0--0--0--1--2--2--2--0--4--5--5-----------

(GUITAR)
  (a)                           (a)
E---------------------------------------------------------- 
B----------------------------------------------------------
G-6-----------------------------6--------------------------
D-7-----------------------------7-------------------------- 
A-7-----------------------------7-------------------------- 
E-5-----------------------------5--------------------------
 when the night---------------has come 
                                (d)
E--------------------------------2------------------------- 
B--------------------------------3-------------------------
G--3-----------------------------2-------------------------
D--4-------------------------------------------------------
A--4-------------------------------------------------------
E--2------------------------------------------------------- 
 and the land is dark, and the moon----------is the 
   (e)              (a)          (a)          (a)
E----------------------------------------------------------
B---------------------------------------------------------- 
G---1-----------6------------6------------6----------------
D---2-----------7------------7------------7----------------
A---2-----------7------------7------------7----------------
E---0-----------5------------5------------5----------------
 only--light u see. well i wont--b afraid  
                                (d)
E--------------------------------2-------------------------
B--------------------------------3-------------------------
G---------3----------------------2-------------------------
D---------4------------------------------------------------
A---------4------------------------------------------------
E---------2------------------------------------------------
 no i-i wont--b afraid, just as long--as u 



   (e)                 (a)
E---------------------------------------------------------- 
B----------------------------------------------------------
G---1-------------------6----------------------------------
D---2-------------------7---------------------------------- 
A---2-------------------7----------------------------------
E---0-------------------5----------------------------------
 stand-----stand by me
 
the chorus is the same 
-----------------------------------------------------------

CHORUS - 
so darlin, darlin stand 
by me o stand 
by me 
just as long 
as u stand 
stand by me 
2ND VERSE - 
when the sky, that we look upon 
crumbles and falls 
and the mountains 
tumble to the sea 
i won't cry i won't cry 
no i wont shed a tear 
just as long as u fuckin stand by me 
[ Tab from: http://www.guitartabs.cc/tabs/p/pennywise/stand_by_me_tab.html ]
-tabbed by agricola
Comments