Pennywise - Society Chords & Tabs

 

Society Chords & Tabs

Pennywise Chords & Tabs

Version: 2 Type: Tab 0 ratings
1 star 2 stars 3 stars 4 stars 5 stars
comments

Society Tab

   
intro:
e-|---------------|---------------------------------------------------------
B-|---------------|---------------------------------------------------------
G-|-12------------|---------------------------------------------------------
D-|---12------12^-|-------9-9-9-------5-5-5-------9-9-9-12-12-12-------12---
A-|-----10----10^-|-x-x-x-7-7-7-x-x-x-3-3-3-x-x-x-7-7-7-10-10-10-12-12-10---
E-|-------10------|-x-x-x-------x-x-x-------x-x-x----------------10-10------

e-|-------------------------------------------------------|
B-|-------------------------------------------------------|
G-|-------------------------------------------------------|
D-|-------9-9-9-------5-5-5-------9-9-9-12-12-12-------12-|
A-|-x-x-x-7-7-7-x-x-x-3-3-3-x-x-x-7-7-7-10-10-10-12-12-10-|
E-|-x-x-x-------x-x-x-------x-x-x----------------10-10----|
[ Tab from: http://www.guitartabs.cc/tabs/p/pennywise/society_tab_ver_2.html ]
last.two.bars.of.intro...is.also.verse:
e-|-------------------------------------------------------------------------
B-|-------------------------------------------------------------------------
G-|-------------------------------------------------------------------------
D-|---------9-9-9-9-5-5-5-5-----5-5---------9-9-9-9-12-12-12-12-------12----
A-|-7-7-7-7-7-7-7-7-3-3-3-3-5-5-3-3-7-7-7-7-7-7-7-7-10-10-10-10-12-12-10----
E-|-5-5-5-5-----------------3-3-----5-5-5-5---------------------10-10-------
on.the.last.bar.of.intro.just.play.out.on.high.G.----^^^^
verse.is.palm.muted.for.2.bars.and.go.out.on.high.G.just.before.chorus.

Chorus:
e-|-------------------------------------------------------------------------
B-|-------------------------------------------------------------------------
G-|-------------------------------------------------------------------------
D-|-----------------5-5-5-5-5-5-5-5-----------------7-7-7-7-7-7-7-7---------
A-|-7-7-7-7-7-7-7-7-3-3-3-3-3-3-3-3-5-5-5-5-5-5-5-5-5-5-5-5-5-5-5-5-7-7-7-7-
E-|-5-5-5-5-5-5-5-5-----------------3-3-3-3-3-3-3-3-----------------5-5-5-5-

e-|---------------------------------------------------------|
B-|---------------------------------------------------------|
G-|---------------------------------------------------------|
D-|---------5-5-5-5-5-5-5-5-7-7-7-7-7-7-7-7-7-7-7-7-7-7-5-5-|
A-|-7-7-7-7-3-3-3-3-3-3-3-3-5-5-5-5-5-5-5-5-5-5-5-5-5-5-3-3-|
E-|-5-5-5-5-------------------------------------------------|
Comments