Pennywise - Same Old Story Chords & Tabs

 

Same Old Story Chords & Tabs

Pennywise Chords & Tabs

Version: 4 Type: Tab 0 ratings
1 star 2 stars 3 stars 4 stars 5 stars
comments

Same Old Story Tab

standard tuning, think this is right for the intro, but not sure.

-------------------------------------------------
-------------------------------------------------
-2-2-2-5-5-5-------------2-2-2-5-5-5-------------
-2-2-2-5-5-5-3-3-3-5-5-5-2-2-2-5-5-5-3-3-3-2-2-2-
-0-0-0-3-3-3-3-3-3-5-5-5-0-0-0-3-3-3-3-3-3-2-2-2-
-------------1-1-1-3-3-3-------------1-1-1-0-0-0-

to me this sounds 100% correct for the intro if you use up and down strokes

-------------------------------------------------
-------------------------------------------------
-2-2-2-5-5-5-----------------------------5-5-5-5-
-2-2-2-5-5-5-3-3-3-5-5-5-2-2-2-2-2-2-2-2-5-5-5-5-
-0-0-0-3-3-3-3-3-3-5-5-5-2-2-2-2-2-2-2-2-3-3-3-3-
-------------1-1-1-3-3-3-0-0-0-0-0-0-0-0---------

-------------------------------------------------
-------------------------------------------------
-2-2-2-5-5-5-------------2-2-2-5-5-5-------------
-2-2-2-5-5-5-3-3-3-5-5-5-2-2-2-5-5-5-3-3-3-2-2-2-
-0-0-0-3-3-3-3-3-3-5-5-5-0-0-0-3-3-3-3-3-3-2-2-2-
-------------1-1-1-3-3-3-------------1-1-1-0-0-0-

-----------------------------------------
-----------------------------------------
-2-2-2-5-5-5-------------3-3-3-3-5-5-5-5-
-2-2-2-5-5-5-3-3-3-5-5-5-3-3-3-3-5-5-5-5-
-0-0-0-3-3-3-3-3-3-5-5-5-1-1-1-1-3-3-3-3-
-------------1-1-1-3-3-3-----------------
[ Tab from: http://www.guitartabs.cc/tabs/p/pennywise/same_old_story_tab_ver_4.html ]
-------------------------------------------------
-------------------------------------------------
-2-2-2-5-5-5-------------2-2-2-5-5-5-------------
-2-2-2-5-5-5-3-3-3-5-5-5-2-2-2-5-5-5-3-3-3-2-2-2-
-0-0-0-3-3-3-3-3-3-5-5-5-0-0-0-3-3-3-3-3-3-2-2-2-
-------------1-1-1-3-3-3-------------1-1-1-0-0-0-

-----------------------------------------
-----------------------------------------
-2-2-2-5-5-5-------------3-3-3-3-5-5-5-5-
-2-2-2-5-5-5-3-3-3-5-5-5-3-3-3-3-5-5-5-5-
-0-0-0-3-3-3-3-3-3-5-5-5-1-1-1-1-3-3-3-3-
-------------1-1-1-3-3-3-----------------

-------------------------------------------------
-------------------------------------------------
-------------------------------------------------
-2-2-2-2-5-5-5-5-2-2-2-2-5-5-5-5-2-2-2-2-5-5-5-5-
-2-2-2-2-5-5-5-5-2-2-2-2-5-5-5-5-2-2-2-2-5-5-5-5-
-0-0-0-0-3-3-3-3-0-0-0-0-3-3-3-3-0-0-0-0-3-3-3-3-
-------------------------------------------------

-----------------------------
-----------------------------
-2-2-2-2-5-5-5--5-5-5--5-5-5-
-2-2-2-2-5-5-5--5-5-5--5-5-5-
-0-0-0-0-3-3-3--3-3-3--3-3-3-
-----------------------------

-------------------------------------------------
-------------------------------------------------
-------------------------------------------------
-2-2-2-2-5-5-5-5-2-2-2-2-5-5-5-5-2-2-2-2-5-5-5-5-
-2-2-2-2-5-5-5-5-2-2-2-2-5-5-5-5-2-2-2-2-5-5-5-5-
-0-0-0-0-3-3-3-3-0-0-0-0-3-3-3-3-0-0-0-0-3-3-3-3-
-------------------------------------------------

can't work out the rest, if anyone can, please e-mail it to me at im_starting_2_like_th@barmaid.co.uk
Comments